Guitaretab - guitar tabs
Song name
# A B C D E F G H I J K L M N O P Q R S T U V W X Y Z

Pantera - Drag The Waters tab

this is the intro to pantera's Drag the Waters
      it's in drop d tuning, but i have it in standard E
[ Tab from: http://www.guitaretab.com/p/pantera/42480.html ]
e|--------------------------------------------------|
b|--------------------------------------------------|
g|--------------------------------3b-0--------------|
d|-------------------------------------5p3p0--------|
a|-------------------------------------------5b-----|
e|-1-0--0-1-0--0-1-0--0-1-0--0-0--------------------|
                             |pm|
b=bend
pm=palm mute
p=pull off
x-mute

         *Verse*
e|-----|-----|------------------------------------------|
b|-----|-----|------------------------------------------|
g|-----|-----|-3b-0-------------------------------------|
d|-----|-----|-----5p3p0--------------------------------|
a|-1-0-|x-x-x|-----------5b-----------------------------|
e|-1-0-|x-x-x|------------------------------------------|
       repeat the x-x-x part a bunch of times before going into
      the next part, then repeat verse
Related for Drag The Waters tab
Advertisement will be closed in 10 seconds