Song name
# A B C D E F G H I J K L M N O P Q R S T U V W X Y Z

Papa Roach - Fire tab

artist= papa roach
song=fire
tabber=cooldudes99

righty then  tuning is uslayy papa roach drop d tunning
ok intro  he=hold note h = hammer on p = pull off
e------------7-|
b------------7-|
g------------7-|
d11h12-11------|
a---------12---|
d--------------|

e------------7-|
b------------8-|
g------------7-|
d11h12-11------|
a---------12---|
d--------------|

just do these 2 for a bit then it changes but its easy

verse chage

e-------------|
b--7-7--8-8---|
g-7-7--7-7----|
d9---9--------| just reapet this intil .....  the chours
a-------------|
d-------------|

chorus is easy
e----------------------|
b----------------------|
g----------------------|   done 4 times
d4--4------5-----------|
a2-------5-------------|
d-------5--------------| but it changes its so simple

d5he-----0he-----2he---5he--4he--6he---|
a5he-----0he-----2he---5he--2he--4he---| 
d5he-----0he-----2he---5he-------------| 

verse
e-------------|
b--7-7--8-8---|
g-7-7--7-7----|
d9---9--------| just reapet this intil .....  the chours
a-------------|
d-------------|

chourus
e----------------------|
b----------------------|
g----------------------|   done 4 times
d4--4------5-----------|
a2-------5-------------|
d-------5--------------| but it changes its so simple

d5he-----0he-----2he---5he--4he--6he---|
a5he-----0he-----2he---5he--2he--4he---| 
d5he-----0he-----2he---5he-------------| 

e----------------------|
b----------------------|
g----------------------|   done 2 times
d4--4------5-----------|
a2-------5-------------|
d-------5--------------| but it changes its so simple

d5he-----0he-----2he---5he--4he--6he---|
a5he-----0he-----2he---5he--2he--4he---| 
d5he-----0he-----2he---5he-------------| 

e----------------------|
b----------------------|
g----------------------|   done 2 times
d4--4------5-----------|
a2-------5-------------|
d-------5--------------| but it changes its so simple


b---------------------------------------------7h8p7------7h8p7----7h8p7----
g4he-------2h4h6----4h6h7------6h8h9--9-7-4--------7-9--------7---------7-9
d---------------------------------------------------------------9----------
chorus times 4 till the end

thanks for view plz rate
Tap to rate this tab
 
# A B C D E F G H I J K L M N O P Q R S T U V W X Y Z