Guitaretab - guitar tabs
Song name
# A B C D E F G H I J K L M N O P Q R S T U V W X Y Z

Papa Roach - Obsession tab

Obsession
Papa Roach
intro
e|-------------------------------------|
b|-------------------------------------|
g|-------------------------------------|
D|--0--3-0-2-0-5-0-3-0-2/3-------------|
A|-------------------------------------|
E|-------------------------------------|

e|-------------------------------------|
b|-------------------------------------|
g|-------------------------------------|
D|-----3--2--5--3--2/3-----------------|
A|---1--1--1--1--1---------------------|
E|-------------------------------------|

e|-------------------------------------|
b|-------------------------------------|
g|-------------------------------------|
D|-----3--2--5--3--2/3-----------------|
A|--0---0--0--0---0--------------------|
E|-------------------------------------|

e|-------------------------------------|
b|-------------------------------------|
g|-------------------------------------|
D|-----3--2--5--3--3/2-----------------|
A|--3---3--3---3-3---------------------|
E|-------------------------------------|

e|-------------------------------------|
b|-------------------------------------|
g|-0s----------------------------------|
D|-------------------------------------|
A|-------------------------------------|
E|-------------------------------------|
bridge
repeat this part twice
e|5-5-5-5-5----3-3-3-3-3-3-------------|
b|6-6-6-6-6----5-5-5-5-5-5-------------|
g|7-7-7-7-7----5-5-5-5-5-5-------------|2 times 
D|7-7-7-7-7----5-5-5-5-5-5-------------|
A|5-5-5-5-5----3-3-3-3-3-3-------------|
E|5-5-5-5-5----3-3-3-3-3-3-------------|
[ Tab from: http://www.guitaretab.com/p/papa-roach/161007.html ]
e|5-5-5-5-5----3-3-3-3-3-3-------------|
b|5-5-5-5-5----5-5-5-5-5-5-------------|
g|5-5-5-5-5----5-5-5-5-5-5-------------|2 times 
D|7-7-7-7-7----5-5-5-5-5-5-------------|
A|7-7-7-7-7----3-3-3-3-3-3-------------|
E|5-5-5-5-5----3-3-3-3-3-3-------------|
verse 1
repeat this part until chorus
e|-------------------------------------|
b|-------------------------------------|
g|-------------------------------------|
D|-0-0-0-0-0-0-0-3-3-5-5-3-------------|
A|------------------------1-1-1-1-1-1-1|
E|-------------------------------------|

e|-------------------------------------|
b|-------------------------------------|
g|-------------------------------------|
D|-0-0-0-0-0-0-0-3-3-5-5-3----------0-0|
A|------------------------1-1-1-1-1----|
E|-------------------------------------|

e|-------------------------------------|
b|-------------------------------------|
g|-------------------------------------|
D|-3-3-5-5-3----------0-0-3-3-5-5-3----|
A|-----------0-0-0-0-0-----------------|
E|-------------------------------------|

e|-------------------------------------|
b|-------------------------------------|
g|-------------------------------------|
D|------------0-0-3-3-5-5-3------------|
A|--3-3-3-3-3--------------------------|
E|-------------------------------------|

chorus
repeat this part twice
e|5-5-5-5-5----3-3-3-3-3-3-------------|
b|6-6-6-6-6----5-5-5-5-5-5-------------|
g|7-7-7-7-7----5-5-5-5-5-5-------------|2 times 
D|7-7-7-7-7----5-5-5-5-5-5-------------|
A|5-5-5-5-5----3-3-3-3-3-3-------------|
E|5-5-5-5-5----3-3-3-3-3-3-------------|

e|5-5-5-5-5----3-3-3-3-3-3-------------|
b|5-5-5-5-5----5-5-5-5-5-5-------------|
g|5-5-5-5-5----5-5-5-5-5-5-------------|2 times 
D|7-7-7-7-7----5-5-5-5-5-5-------------|
A|7-7-7-7-7----3-3-3-3-3-3-------------|
E|5-5-5-5-5----3-3-3-3-3-3-------------|
Related for Obsession tab
×
Obsession