Song name
# A B C D E F G H I J K L M N O P Q R S T U V W X Y Z

Papa Roach - Forever tab


I just herd this song for the first time 5 min ago but im pretty shur this is it.
Also just thought i'd put the bass line to.
[--------------------------------]
[--------------------------------]
[--------------------------------]
[33333333666666661111111100000000]

Then comes in with disortion.V1
[--------------------------------------------]
[13~~~~~~11~~~~~~10~~~~~~~13/6~p8~~~10~8~6~p8]
[--------------------------------------------]
[--------------------------------------------]
[--------------------------------------------]
[--------------------------------------------]

pre
[-----------------------------------------]
[11--11-10---10-8-------------------------]
[---------10-----9--9--7-9-10--10-9-10-12-]
[-----------------------------------------]
[-----------------------------------------]
[-----------------------------------------]

Chorus
[---------------------------------[----]
[---------------------------------[----]
[----------------5555555533333333-[----]
[00000000333333335555555533333333-[-870]
[00000000333333333333333311111111-[-870]
[0000000033333333-----------------[-870]

V2
[--5-5--------8--8---------3-3-------1-1----]
[-6-6-6-6---10-10-10--10--5-5-5-5---3-3-3-3-]
[7-----7--10--------10---5-----5---3-----3--]
[-------------------------------------------]
[-------------------------------------------]
[-------------------------------------------]

pre
[-----------------------------------------]
[11--11-10---10-8-------------------------]
[---------10-----9--9--7-9-10--10-9-10-12-]
[-----------------------------------------]
[-----------------------------------------]
[-----------------------------------------]

Chorus
[---------------------------------[----]
[---------------------------------[----]
[----------------5555555533333333-[----]
[00000000333333335555555533333333-[-870]
[00000000333333333333333311111111-[-870]
[0000000033333333-----------------[-870]

Bridge
[-----------------------------------------------------------------------]
[-----------------------------------------------------------------------]
[-----------------------------------------------------------------------]
[8877-000000000000-8877-333333333333-8877-555555555555-8877-88888888-10-]
[8877-000000000000-8877-333333333333-8877-555555555555-8877-88888888-10-]
[8877-000000000000-8877-333333333333-8877-555555555555-8877-88888888-10-]

Chorus
[---------------------------------[----]
[---------------------------------[----]
[----------------5555555533333333-[----]
[00000000333333335555555533333333-[-870]
[00000000333333333333333311111111-[-870]
[0000000033333333-----------------[-870]
Tap to rate this tab
 
# A B C D E F G H I J K L M N O P Q R S T U V W X Y Z