Song name
# A B C D E F G H I J K L M N O P Q R S T U V W X Y Z

Papa Roach - Last Resort tab

    intro       ---------------------------------------------------------------------
                ---------------------------------------------------------------------
                ---------------------------------------------------------------------
                -66----44----22----00--22--------------------------------------------
                -66----44----22----00--22--------------------------------------------
                ---------------------------------------------------------------------

                ---------------------------------------------------------------------
 verse  (6x)    ---------2---------------2---------------2---------------2-----------
 (2nd - 6th     ---3-4-3---4-3-4---3-4-3---4-3-4---3-4-3---4-3-4---3-4-3---4-3-4-----  time are muted) -3---------------3---------------3---------------3-------------------  
                ---------------------------------------------------------------------
                ---------------------------------------------------------------------

chorus          ---------------------------------------------------------------------    
                -----------------4----6----7----6--------------------4----6----7----6
                ---------------------------------------------------------------------
                -6-6-6-6-4-4-4-4---------------------6-6-6-6-4-4-4-4-----------------    
                -6-6-6-6-4-4-4-4---------------------6-6-6-6-4-4-4-4-----------------
                ---------------------------------------------------------------------

verse   (6x)    ---------------------------------------------------------------------
 (2nd - 6th     ---------2---------------2---------------2---------------2-----------
time are muted) ---3-4-3---4-3-4---3-4-3---4-3-4---3-4-3---4-3-4---3-4-3---4-3-4-----
                -3---------------3---------------3---------------3-------------------
                ---------------------------------------------------------------------
                ---------------------------------------------------------------------

chorus          ---------------------------------------------------------------------
                ---------------------------------------------------------------------
                -----------------4--6--7--6--------------------------4--6--7--6------
                -6-6-6-6-4-4-4-4---------------------6-6-6-6-4-4-4-4-----------------
                -6-6-6-6-4-4-4-4---------------------6-6-6-6-4-4-4-4-----------------
                ---------------------------------------------------------------------

2nd chorus      ---------------------------------------------------------------------
                ---------------------------------------------------------------------
                ---------------------------------------------------------------------
                -6-6-6-6-4-4-4-4-2-2-2-2-4-4-4-4-6-6-6-6-4-4-4-4-2-2-2-2-4-4-4-4-----
                -6-6-6-6-4-4-4-4-2-2-2-2-4-4-4-4-6-6-6-6-4-4-4-4-2-2-2-2-4-4-4-4-----
                ---------------------------------------------------------------------

                ---------------------------------------------------------------------
                ---------------------------------------------------------------------
                ---------------------------------------------------------------------
                -6-6-6-6--4---4-4-7-7-7-7--2---4-4-6-6-6-6--4---4-4-7-7-7-7--2---4-4-  
                -6-6-6-6--4---4-4-7-7-7-7--2---4-4-6-6-6-6--4---4-4-7-7-7-7--2---4-4-
                ---------------------------------------------------------------------

intro           ---------------------------------------------------------------------
                ---------------------------------------------------------------------
                ---------------------------------------------------------------------
                -66----44----22----00--22----66----44----22----00--22---------------- 
                -66----44----22----00--22----66----44----22----00--22----------------

                ---------------------------------------------------------------------
                ---------------------------------------------------------------------
                ---------------------------------------------------------------------
                -66----44----22----00--22----66----44----22----00--22----------------
                -66----44----22----00--22----66----44----22----00--22----------------
                ---------------------------------------------------------------------

                ---------------------------------------------------------------------
                ---------2---------------2---------------2---------------2-----------
                ---3-4-3---4-3-4---3-4-3---4-3-4---3-4-3---4-3-4---3-4-3---4-3-4-----
                -3---------------3---------------3---------------3-------------------
                ---------------------------------------------------------------------
                ---------------------------------------------------------------------

                ---------------------------------------------------------------------
                ---------2---------------2---------------2---------------------------
                ---3-4-3---4-3-4---3-4-3---4-3-4---3-4-3---4-3-4---------------------
                -3---------------3---------------3---------------3-3-3-3-5-5-5-5-----
                -------------------------------------------------3-3-3-3-5-5-5-5----- 
                ---------------------------------------------------------------------

 chorus         ---------------------------------------------------------------------
                -----------------4--6--7--6------------------4--6--7--6--------------
                ---------------------------------------------------------------------
                -6-6-6-6-4-4-4-4-------------6-6-6-6-4-4-4-4-------------------------
                -6-6-6-6-4-4-4-4-------------6-6-6-6-4-4-4-4-------------------------
                --------------------------------------------------------------------- 

2nd chorus      ---------------------------------------------------------------------
                ---------------------------------------------------------------------
                ---------------------------------------------------------------------
                -6-6-6-6-4-4-4-4-2-2-2-2-4-4-4-4-6-6-6-6-4-4-4-4-2-2-2-2-4-4-4-4-----
                -6-6-6-6-4-4-4-4-2-2-2-2-4-4-4-4-6-6-6-6-4-4-4-4-2-2-2-2-4-4-4-4-----                ---------------------------------------------------------------------

                ---------------------------------------------------------------------
                -----------------4--6--7--6-----------------4--6--7--6---------------
                ---------------------------------------------------------------------
                -6-6-6-6-4-4-4-4------------6-6-6-6-4-4-4-4--------------------------
                -6-6-6-6-4-4-4-4------------6-6-6-6-4-4-4-4--------------------------
                ---------------------------------------------------------------------

 outro          ---------------------------------------------------------------------
                --------------------------------------------4--6--7--6---------------
                ---------------------------------------------------------------------
                -6666666644444444pm222222224444444466666666-------------------------- 
                -6666666644444444pm222222224444444466666666--------------------------
                ---------------------------------------------------------------------
  
                ---------------------------------------------------------------------
                ------------------4--6--7--6------------------4--6--7------------------
                --------------------------------------------------------------------
                -4444444466666666------------4444444466666666---------44444444-4-4-4-
                -4444444466666666------------4444444466666666---------44444444-4-4-4-
                ---------------------------------------------------------------------



                
Tap to rate this tab
 
# A B C D E F G H I J K L M N O P Q R S T U V W X Y Z