Song name
# A B C D E F G H I J K L M N O P Q R S T U V W X Y Z

Paradise Fears - Fall On Me tab

Paradise fears - Fall on me

Standard tuning

Chords:
   C#   E(2)  B    A
e|----------------------|
b|----------------------|
g|-6----9-----4----2----|
d|-6----9-----4----2----|
a|-4----7-----2----0----|
e|----------------------|

b = bend
h = hammer-on
p = pull-off
/ = slide up
\ = slide down
____________________________

BRIDGE / VERSE:
guitar 1: C#, E(2), B, A
guitar 2: C#, E(2), B, A


CHORUS:
guitar 1: E(2), B, C#, A
guitar 2: E(2), B, C#, A



SOLO:

guitar 1: power chords: C#, E(2), B, A

guitar 2: 

e|---------------------------------------------------------------------------|
b|---------------------------------------------------------------------------|
g|-13b-13b-13h14p13-------16-14-13-13-14-13-------16-14-13-13-14-13-14-------|
d|------------------14-14-------------------14-14----------------------------|
a|---------------------------------------------------------------------------|
e|---------------------------------------------------------------------------|


e|-------------------------12-14b-12\1--16p17h16---------------------16p17h16-----------19|
b|-14-14-14-14-12-12p14/15----------------------19-17-----------17-----------19-17--------|
g|-----------------------------------------------------19-18-19---------------------19----|
d|----------------------------------------------------------------------------------------|
a|----------------------------------------------------------------------------------------|
e|----------------------------------------------------------------------------------------|


e|-16p17h16-------------------16p19h16---------------------------------------|
b|----------19-17----------17----------19-17----17-17------------------------|
g|----------------19-18-19-------------------19------------------------------|
d|---------------------------------------------------------------------------|
a|---------------------------------------------------------------------------|
e|---------------------------------------------------------------------------|

e|-------------------------------------------16p17h16-------------------------------16b-|
b|-------------------------------------14-12----------19-17-----------------------------|
g|----------------------12-14----14p16----------------------18-16-14-16-14-16-18-16-----|
d|----------12-14-12-14-------12--------------------------------------------------------|
a|-------14-----------------------------------------------------------------------------|
e|-12-14--------------------------------------------------------------------------------|
Tap to rate this tab
# A B C D E F G H I J K L M N O P Q R S T U V W X Y Z