Song name
# A B C D E F G H I J K L M N O P Q R S T U V W X Y Z

Paramore - Ignorance tab

e|----------------x-x--x-x--x-----------------x-x--x-x--x-----|
B|----------------3-3--3-3--3-----------------3-3--3-3--3-----|
G|--4-4--4-4--4---2-2--2-2--2---4-4--4-4--4---2-2--2-2--2-----|
D|--4-4--4-4--4-----------------4-4--4-4--4-------------------|
A|--2-2--2-2--2-----------------2-2--2-2--2-------------------|
D|------------------------------------------------------------|

e|--------------------------------------------10-10-9-9-------|
B|------------------------------------------------------10----|
G|---------------------------------------------------------11-|
D|--5-5--5-5--5---4-4--4-4--4---5-5--5-5--5-------------------|
A|--5-5--5-5--5---4-4--4-4--4---5-5--5-5--5-------------------|
D|--5-5--5-5--5---4-4--4-4--4---5-5--5-5--5-------------------|

e|----------------x-x--x-x--x-----------------x-x--x-x--x-----|
B|----------------3-3--3-3--3-----------------3-3--3-3--3-----|
G|--4-4--4-4--4---2-2--2-2--2---4-4--4-4--4---2-2--2-2--2-----|
D|--4-4--4-4--4-----------------4-4--4-4--4-------------------|
A|--2-2--2-2--2-----------------2-2--2-2--2-------------------|
D|------------------------------------------------------------|

e|------------------------------------------------------------|
B|------------------------------------------------------------|
G|------------------------------------------------------------|
D|--5-5--5-5--5---4-4--4-4--4---5-5--5-5--5-------------------|
A|--5-5--5-5--5---4-4--4-4--4---5-5--5-5--5---5-5-4-4---------|
D|--5-5--5-5--5---4-4--4-4--4---5-5--5-5--5------------7-4----|


Tap to rate this tab
# A B C D E F G H I J K L M N O P Q R S T U V W X Y Z