Song name
# A B C D E F G H I J K L M N O P Q R S T U V W X Y Z

Paramore - Brick By Boring Brick chords

Highlighted       Show chord diagrams
Brick By Boring Brick (Acoustic)
By Paramore
Tuning: Standard
Key: Fm


Verse:

e|--------------------------------------------------------|
B|--------------------------------------------------------|
G|-------10-8-5-5h6p5h6p5---------------------------------|
D|-----6--------------------------------------------------|
A|-7h9----------------------------------------------------|
E|--------------------------------------------------------|
Pre-Chorus
e|--------------------------------------------------------|
B|--------------------------------------------------------|
G|--------------------------------------------------------|
D|-8----10-6-5---6--8-------------------------------------|
A|--------------------------------------------------------|
E|--------------------------------------------------------|
Chorus
e|--------------------------------------------------------|
B|-----9-8--------9-8-------------------------------------|
G|-2/6-----8ó2/6------8------8----8ó---5/3--5/3-----------|
D|-----------------------5/6---5/6------------------------|
A|--------------------------------------------------------|
E|--------------------------------------------------------|
Bridge
e|--------------------------------------------------------|
B|--------------------------------------------------------|
G|----------13-15-13---12-13------------------------------|
D|-11-13-13---------13------------------------------------|
A|--------------------------------------------------------|
E|--------------------------------------------------------|
Outro
e|--------------------------------------------------------|
B|--------------------------------------------------------|
G|--------------------------------------------------------|
D|--10^---------------------------------------------------|
A|--------------------------------------------------------|
E|--------------------------------------------------------|
Intro: Fm, Eb, Ab x2

Verse
N.C
She lives in a fairy tale

Somewhere too far for us to find

Forgotten the taste and smell

Of the world that she's left behind


Fm					Ab
It's all about the exposure the lens I told her


Fm					
The angles were all wrong now

Ab
She's ripping wings off of butterflies


Pre-Chorus
Eb					Ab	Eb	Cm
Keep your feet on the ground

Eb					Ab 	Eb	Cm
When your headís in the clouds


Chorus
Ab
Well go get your shovel

Cm
And we'll dig a deep hole

Ab
To bury the castle, 
Eb
bury the castle

Ab
Well go get your shovel

Cm
And we'll dig a deep hole

Ab
To bury the castle, 
Eb
bury the castle

N.C
Ba da ba ba da ba
ba-ah

Ab, Fm,Eb,Ab

Verse
N.C
So one day he found her crying

Coiled up on the dirty ground

Her prince finally came to save her

And the rest you can figure out

Fm			
But it was a trick

Ab
And the clock struck 12

Fm						
Well make sure to build your home brick by boring brick
Ab

or the wolves gonna blow it down


Pre-Chorus
Ab					Eb	Ab	Cm
Keep your feet on the ground

Ab					Eb 	Ab	Cm
When your headís in the clouds

Chorus
Ab
Well go get your shovel

Cm
And we'll dig a deep hole

Ab
To bury the castle, 
Eb
bury the castle

Ab
Well go get your shovel

Cm
And we'll dig a deep hole

Ab
To bury the castle, 
Eb
bury the castle


Bridge (Not so sure about this part)
Bb, Ab, Eb, Cm, 
Bb, Ab, Eb, Fm
Well you built up a world of magic

Because your real life is tragic

Yeah you built up a world of magic


Pre-Chorus 2
Ab
If it's not real

Eb
You can't see it with your eyes

Ab
You can't feel it with your heart

Cm
And I won't believe it
Ab

Cause if it's true


Eb
You can see it with your eyes

Ab
Even in the dark

Cm
And that's where I want to be, yeah


Chorus
Ab
Well go get your shovel

Cm
And we'll dig a deep hole

Ab
To bury the castle, 
Eb
bury the castle

Ab
Well go get your shovel

Cm
And we'll dig a deep hole

Ab
To bury the castle, 
Eb
bury the castle


Outro
Fm, Ab
Tap to rate this tab
# A B C D E F G H I J K L M N O P Q R S T U V W X Y Z