Song name
# A B C D E F G H I J K L M N O P Q R S T U V W X Y Z

Paramore - Feeling Sorry tab

Paramore - Feeling sorry, from Brand new eyes

By: MadsTheParamore
The intro, should be about right, but i REALLY Donīt know about the rest, but i tried :) 
Enjoy :) Hope you like it.

E---------------------------------------------------------------------------|
B-7-7-7-7-7-9-5-7-7-7-7-7-9-5-9-9-9-9-9-9-9-9-9-9-9-7-7-7-------------------|
G---------------------------------------------------------------------------|
D---------------------------------------------------------------------------|
A---------------------------------------------------------------------------|
E---------------------------------------------------------------------------|


E---------------------------------------------------------------------------|
B-7-7-7-7-7-9-5-7-7-7-7-7-9-5-9-9-9-9-9-9-9-9-9-9-9-12-12-12----------------|
G---------------------------------------------------------------------------|
D---------------------------------------------------------------------------|
A---------------------------------------------------------------------------|
E---------------------------------------------------------------------------|


VERSE 1
(This is played as powerchords)
A                         D         A
We still live in the same town well donīt we?
D                   A      D
But i donīt see you around anymore.
A                     D
We go to all the same places
           A                             D
Not even a trace of you, youīre days are numbered at 24!
(This is normal chords)
G               A                         D                     D
And iīm getting bored, waiting around for you. Were not getting any younger
    G                       A          D                      D
and i wonīt look back cause thereīs no use. Itīs time to move forward!


CHORUS

I donīt think Paramore play it this way, but try to play the intro again, (thatīs how i 
it, and it works)

E---------------------------------------------------------------------------|
B-7-7-7-7-7-9-5-7-7-7-7-7-9-5-9-9-9-9-9-9-9-9-9-9-9-7-7-7-------------------|
G---------------------------------------------------------------------------|
D---------------------------------------------------------------------------|
A---------------------------------------------------------------------------|
E---------------------------------------------------------------------------|


E----------------------------------------------------------------------------|
B-7-7-7-7-7-9-5-7-7-7-7-7-9-5-9-9-9-9-9-9-9-9-9-9-9-12-12-12-----------------|
G----------------------------------------------------------------------------|
D----------------------------------------------------------------------------|
A----------------------------------------------------------------------------|
E----------------------------------------------------------------------------|x2


VERSE 2

(just play the same as verse 1)
Well i try not to think of what might have been, when youīre reality finally cuts 
well as for me i got out and iīm on the road.
The worst part is that this, this could be you!
and you know it too
you cant run from your shame
your getting any of, and time
keeps passing by
but you waited away
its time to roll onward


CHORUS


E---------------------------------------------------------------------------|
B-7-7-7-7-7-9-5-7-7-7-7-7-9-5-9-9-9-9-9-9-9-9-9-9-9-7-7-7-------------------|
G---------------------------------------------------------------------------|
D---------------------------------------------------------------------------|
A---------------------------------------------------------------------------|
E---------------------------------------------------------------------------|


E---------------------------------------------------------------------------|
B-7-7-7-7-7-9-5-7-7-7-7-7-9-5-9-9-9-9-9-9-9-9-9-9-9-12-12-12----------------|
G---------------------------------------------------------------------------|
D---------------------------------------------------------------------------|
A---------------------------------------------------------------------------|
E---------------------------------------------------------------------------|

DONīT PLAY THIS TWICE!!!
After This, there is some short drum thing and then:

(And all the best lies, they are told with fingers tight, so cross them tight...)

E---------------------------------------------------------------------------|
B-7-5-5-7-9-7-7-5-5-5-7-9-9-9-7-5-5-5-7-7-8-8-9------5-5-5-7-9-11-----------|
G----------------------------------------------------youīll get o-o-o-out!--|
D---------------------------------------------------------------------------|
A---------------------------------------------------------------------------|
e---------------------------------------------------------------------------|


And then chorus, you can play the usual chorus here, (but play it still!) or you can 
improvise, as long as you keep it on:
B- 5, 7, 9, (and maybe) 12, you can probably hear it yourself, if you are playing it with the cd.


CHORUS:


E---------------------------------------------------------------------------|
B-7-7-7-7-7-9-5-7-7-7-7-7-9-5-9-9-9-9-9-9-9-9-9-9-9-7-7-7-------------------|
G---------------------------------------------------------------------------|
D---------------------------------------------------------------------------|
A---------------------------------------------------------------------------|
E---------------------------------------------------------------------------|


E----------------------------------------------------------------------------|
B-7-7-7-7-7-9-5-7-7-7-7-7-9-5-9-9-9-9-9-9-9-9-9-9-9-12-12-12-----------------|
G----------------------------------------------------------------------------|
D----------------------------------------------------------------------------|
A----------------------------------------------------------------------------|
E----------------------------------------------------------------------------|x2


Hope you like it :) Iīll maybe post a better version another time.
Tap to rate this tab
# A B C D E F G H I J K L M N O P Q R S T U V W X Y Z