Song name
# A B C D E F G H I J K L M N O P Q R S T U V W X Y Z

Paramore - Hallelujah Live tab

-------------------------------------------------------------------------------
			     Hallelujah - Paramore
-------------------------------------------------------------------------------
Tabbed by: Red323
Email: AdventureGuy@comcast.net

Tuning: Standard
This is my first tab, so it's not perfect. Also, I tabbed it listening to the 
Final Riot! live version, so if it sounds off when you play to the version on 
Riot! that's because they play it a little different live.
Enjoy!

********************
h - hammer on
********************

INTRO

e|--6-6-6-8-8-8-10-10-10-13-13-13-13-13-13-13--------------------------------| 4 times 
B|------------------------------11-11-11-11-11-------------------------------|
G|---------------------------------------------------------------------------|
D|---------------------------------------------------------------------------|
A|---------------------------------------------------------------------------|
E|---------------------------------------------------------------------------| 

Verse

e|---------------------------------------------------------------------------| 2 times
B|---------------------------------------------------------------------------|
G|---------------------------------------------------------------------------|
D|---------------------------------------------------------------------------|
A|-8-8-8---5-5-5---3-3-3-----------------------------------------------------|
E|-6-6-6---3-3-3---1-1-1-----------------------------------------------------| 

e|--------------------1-1-6-6-5-5--------------------------------------------| 2 times
B|--------1-1-3-3-4-4-------------------1-1-3-3-4-4-3-3-1-1-3-3--------------|
G|---3-3----------------------------3-3--------------------------------------|
D|---------------------------------------------------------------------------|
A|---------------------------------------------------------------------------|
E|---------------------------------------------------------------------------|

Pre-Chorus

e|-6-6-6-8-8-8-10-10-10-13-13-13-13-13-13-13---------------------------------| 2 times
B|----------------------------11-11-11-11-11---------------------------------|
G|---------------------------------------------------------------------------|
D|---------------------------------------------------------------------------|
A|---------------------------------------------------------------------------|
E|---------------------------------------------------------------------------|

Chorus

e|-6-6-6-8-8-8-10-10-10-13-13-13-13-13-13-13---------------------------------| 4 times
B|----------------------------11-11-11-11-11---------------------------------|
G|---------------------------------------------------------------------------|
D|---------------------------------------------------------------------------|
A|---------------------------------------------------------------------------|
E|---------------------------------------------------------------------------|

e|-----10------8------10-----6-----------------------------------------------| 2 times
B|---------------------------------------------------------------------------|
G|-7-8----7-8----7-8-----7-8-------------------------------------------------|
D|---------------------------------------------------------------------------|
A|---------------------------------------------------------------------------|
E|---------------------------------------------------------------------------|

Verse

Pre-Chorus: *It's different this time at the end*

e|-6-6-6-8-8-8-10-10-10-13-13-13-13-13-13-13--------13-------13-------13-----|
B|----------------------------11-11-11-11-11--10h11----10h11----10h11--------|
G|---------------------------------------------------------------------------|
D|---------------------------------------------------------------------------|
A|---------------------------------------------------------------------------|
E|---------------------------------------------------------------------------|

Chorus

Bridge *Unfortunately I can't figure out the rythm part but I do know the lead part*

e|-6-6-6-5-5-5-------6-6-6-5-5-5---------------------------------------------| 2 times
B|-------------------------------6-------------------------------------------|
G|-------------7-------------------------------------------------------------|
D|---------------------------------------------------------------------------|
A|---------------------------------------------------------------------------|
E|---------------------------------------------------------------------------|

Solo

e|-------------------------6---8---10---11---10------------------------------|
B|-6-6-6-6-6-6-6-------------------------------------------------------------|
G|------------------8---7----------------------------------------------------|
D|---------------------------------------------------------------------------|
A|---------------------------------------------------------------------------|
E|---------------------------------------------------------------------------|

Drum Fill

Chorus

Ending
*This part is the ending for the Final Riot! Live version only (I think)*

e|---------------------------------------------------------------------------|
B|---------------------------------------------------------------------------|
G|---------------------------------------------------------------------------|
D|---------------------------------------------------------------------------|
A|-8--8-----8----------------------------------------------------------------|
E|-6--6-----6----------------------------------------------------------------|
Tap to rate this tab
 
# A B C D E F G H I J K L M N O P Q R S T U V W X Y Z