Song name
# A B C D E F G H I J K L M N O P Q R S T U V W X Y Z

Paramore - Throwing Punches tab

Guitar 1- Drop D tuning (lead)
Guitar 2- Drop D tuning (rythym/acoustic)

Intro
0:00-0:19
G1
|-----------------------------------------------------|
|-----------------------------------------------------|
|--7---7-7---7-7--7-7--7---7-7----4---4--4--4---------| x3
|--0---0-0---0-0--0-0--0---0-0----2---2--2--2---------|
|--0---0-0---0-0--0-0--0---0-0----2---2--2--2---------|
|--0---0-0---0-0--0-0--0---0-0----2---2--2--2---------|

|--------------------------------------------------|
|--------------------------------------------------|
|--7---7-7---7-7--7-7--7---7-7----4~---------------| 
|--0---0-0---0-0--0-0--0---0-0----2~---------------|
|--0---0-0---0-0--0-0--0---0-0----2~---------------|
|--0---0-0---0-0--0-0--0---0-0----2~---------------|

G2
|---------------------------------------------------|
|---------------------------------------------------|
|--7--7-7---7-7--7-7--7---7-7---11-11--11-----------|
|--7--7-7---7-7--7-7--7---7-7----9--9---9-----------|
|--5--5-5---5-5--5-5--5---5-5----7-(7)-(7)----------|
|---------------------------------------------------|

|-----------------------------------------------|
|-----------------------------------------------|
|--7--7-7---7-7--7-7--7---7-7----9~-------------|
|--7--7-7---7-7--7-7--7---7-7----9~-------------|
|--5--5-5---5-5--5-5--5---5-5----7~-------------|
|-----------------------------------------------|

Verse1 0:20-0:38

G1-Silent
G2
|----------------------------------------------------|
|----------------------------------------------------|
|--7--7-7---7-7--7-7--7---7-7---11-11--11------------| x4
|--7--7-7---7-7--7-7--7---7-7----9--9---9------------|
|--5--5-5---5-5--5-5--5---5-5----7-(7)-(7)-----------|
|----------------------------------------------------|

Refrain
0:39-1:17
G1
|-----------------------------------------------------------|        
|----7------7---7-7---7---7---------------------------------|   
|---------7---7-----7---7----------9-----9----9----9----9---|    
|-------------------------------------12---12---12---12-----|    
|-----------------------------------------------------------|\     
|-----------------------------------------------------------| \     
                                                               \x4
|-----------------------------------------------------------|  /  
|----7-----7---7-7---7---7---------------------10-----------| / 
|--------7---7------7---7------9-----9----9---------9---7---|    
|----------------------------------12--12-------------------|   
|-----------------------------------------------------------|    
|-----------------------------------------------------------|    

G2
|-------------------------------------------------------|
|---------------------------3-3-3-3-3-3-3-3-3-3-3-3-----|
|---------------------------4-4-4-4-4-4-4-4-4-4-4-4-----| x4
|---5-5-5-5-5-5---7-7-7-7---4-4-4-4-4-4-4-4-4-4-4-4-----|
|---5-5-5-5-5-5---7-7-7-7---2-2-2-2-2-2-2-2-2-2-2-2-----|
|---5-5-5-5-5-5---7-7-7-7-------------------------------|

Chorus
1:22- 1:39

G1
|---------------------------------------------------------|
|---------------------------------------------------------|
|---7-7-7-7-7-7-7-7-4-4-4-4--11-11--11--11-11--11---------|
|---7-7-7-7-5-5-5-5-2-2-2-2-------------------------------| x2
|---5-5-5-5-5-5-5-5-2-2-2-2---9--9---9---9--9---9---------|
|-----------5-5-5-5-2-2-2-2-------------------------------|

G2
|---------------------------------------------|
|---------------------------------------------|
|-----------------------------5--5-5--5-5-5---| x2
|--0-0-0-0-5-5-5-5-2-2-2-2----5--5-5--5-5-5---|
|--0-0-0-0-5-5-5-5-2-2-2-2----3--3-3--3-3-3---|
|--0-0-0-0-5-5-5-5-2-2-2-2--------------------|

Post chorus
1:40-1:50
G1
|----------------------------------|-------------------------------------|
|----------------------------------|-------------------------------------|
|-------6-/-7-\-6~-----9--9--9\----|-------6-/-7-\-6~------11--11-11-----|
|----0~------------0~--------------|----0~------------0~-----------------|
|----0-------------0~--7--7--7\----|----0~------------0~----9---9--9-----|
|----0~------------0~--------------|----0~------------0~-----------------|

G2
|----------------------------------|-------------------------------------|
|----------------------------------|-------------------------------------|
|----------------------------------|-------------------------------------|
|----0~-----------0~---------------|----0~-----------0~------------------|
|----0~-----------0~---------------|----0~-----------0~------------------|
|----0~-----------0~---------------|----0~-----------0~------------------|
Verse 2
1:51-2:08
G1
|----------------------------------------------------|
|----------------------------------------------------|
|---7--7-7--x---7--7-7--x---7--7-7--x--11-11--11--x--| x4
|---7--7-7--x---7--7-7--x---7--7-7--x---9--9---9--x--|
|---5--5-5--x---5--5-5--x---5--5-5--x---7--7---7--x--|
|-----------x-----------x-----------x-------------x--|

G2
|-----------------------------------------------------|
|-----------------------------------------------------|
|--7--7-7---7-7--7-7--7---7-7---11-11--11-------------| x4
|--7--7-7---7-7--7-7--7---7-7----9--9---9-------------|
|--5--5-5---5-5--5-5--5---5-5----7-(7)-(7)------------|
|-----------------------------------------------------|


Refrain
2:09-2:45
G1
|-10--9-----|----|---------------------------------------------|     
|-------10--|----|---7---7---7-7---7-----------------10--------|   
|-----------| x4-|------7--7-----7---7---9-----9--9-----9---7--|  
|-----------|----|--------------------------12--12-------------|   
|-----------|----|---------------------------------------------|  
|-----------|----|---------------------------------------------|     

G2
|-------------------------------------------------------|
|---------------------------3-3-3-3-3-3-3-3-3-3-3-3-----|
|---------------------------4-4-4-4-4-4-4-4-4-4-4-4-----| x4
|---5-5-5-5-5-5---7-7-7-7---4-4-4-4-4-4-4-4-4-4-4-4-----|
|---5-5-5-5-5-5---7-7-7-7---2-2-2-2-2-2-2-2-2-2-2-2-----|
|---5-5-5-5-5-5---7-7-7-7-------------------------------|

Chorus
2:51-3:10

G1
|-------------------------------------------------------|
|-------------------------------------------------------|
|---7-7-7-7-7-7-7-7-4-4-4-4---11-11--11--11-11--11------|
|---7-7-7-7-5-5-5-5-2-2-2-2-----------------------------| x2
|---5-5-5-5-5-5-5-5-2-2-2-2----9--9---9---9--9---9------|
|-----------5-5-5-5-2-2-2-2-----------------------------|

G2
|---------------------------------------------|
|---------------------------------------------|
|-----------------------------5--5-5--5-5-5---| x2
|--0-0-0-0-5-5-5-5-2-2-2-2----5--5-5--5-5-5---|
|--0-0-0-0-5-5-5-5-2-2-2-2----3--3-3--3-3-3---|
|--0-0-0-0-5-5-5-5-2-2-2-2--------------------|

Post Chorus
3:11-3:19
G1
|---------------------------------|------------------------------------|
|---------------------------------|------------------------------------|
|-------6-/-7-\-6-----9--9--9\----|-------6-/-7-\-6------11--11-11-----|
|----0~-----------0~--------------|----0~-----------0~-----------------|
|----0------------0~--7--7--7\----|----0~-----------0~----9---9--9-----|
|----0~-----------0~--------------|----0~-----------0~-----------------|

G2
|---------------------------------|------------------------------------|
|---------------------------------|------------------------------------|
|---------------------------------|------------------------------------|
|----0~-------------0~------------|----0~------------0~----------------|
|----0~-------------0~------------|----0~------------0~----------------|
|----0~-------------0~------------|----0~------------0~----------------|

Bridge
3:20-3:53
G2                                                   Both
|------------0----------------|----|----------------------|-----|-------|
|----------3------------2--3--|----|----------------------|-----|-------|
|--------2-----2----4-------0-|x4--|----------------------|-x3--|-------|
|------0----------4---4-------|----| 5-5-5-5-5--2-2-2-2-2-|-----|--5~---|
|----0-----------2------------|----|-5-5-5-5-5--2-2-2-2-2-|-----|--5~---|
|--5--------------------------|----|-5-5-5-5-5--2-2-2-2-2-|-----|--5~---|

Chorus
3:58-4:16

G1
|----------------------------------------------------------|
|----------------------------------------------------------|
|---7-7-7-7-7-7-7-7-4-4-4-4---11-11--11--11-11--11---------|
|---7-7-7-7-5-5-5-5-2-2-2-2--------------------------------| x2
|---5-5-5-5-5-5-5-5-2-2-2-2----9--9---9---9--9---9---------|
|-----------5-5-5-5-2-2-2-2--------------------------------|

G2
|---------------------------------------------|
|---------------------------------------------|
|-----------------------------5--5-5--5-5-5---| x2
|--0-0-0-0-5-5-5-5-2-2-2-2----5--5-5--5-5-5---|
|--0-0-0-0-5-5-5-5-2-2-2-2----3--3-3--3-3-3---|
|--0-0-0-0-5-5-5-5-2-2-2-2--------------------|

Outro
4:17- end

G1
|-------------------------------------------|
|-------------------------------------------|
|---4-4-4-4--11--11--11--11-11-11-----------|
|---2-2-2-2---------------------------7~----|
|---2-2-2-2---9---9---9---9--9--9-----5~----|
|---2-2-2-2---------------------------0~----|

   
G2
|--------------------------------------|
|--------------------------------------|
|------------5--5-5--5-5--5------------|
|---2-2-2-2--5--5-5--5--5-5---0~-------|
|---2-2-2-2--3--3-3--3--3-3---0~-------|
|---2-2-2-2-------------------0~-------|

  







Tap to rate this tab
 
# A B C D E F G H I J K L M N O P Q R S T U V W X Y Z