Song name
# A B C D E F G H I J K L M N O P Q R S T U V W X Y Z

Paramore - I Caught Myself tab

 ---------------------------
|I Caught myself - Paramore| 
 ---------------------------

I think this sounds right

*Guitar 1:
INTRO:
|4-----4------7---7--|  
|--5-----5----------5| 
|----6-----6----6----|(many times) 
|--------------------|
|--------------------|
|--------------------|


Chorus 1:
|-16------16------19---19----|
|---17------17-----------17--|
|------18-----18----18-------|
|----------------------------|
|----------------------------|
|----------------------------| 

2nd Verse:
|--4--4--7--7--4--4--7--7--|
|--5--5--5--5--5--5--5--5--|
|--------------------------|  x4
|--------------------------|
|--------------------------|
|--------------------------|

Pre Chorus:
|-16------16------19---19----|
|---17------17-----------17--|
|------18-----18----18-------|
|----------------------------|
|----------------------------|
|----------------------------|

Chorus 2:
|-16------16------19---19----|
|---17------17-----------17--|
|------18-----18----18-------|
|----------------------------|
|----------------------------|
|----------------------------| 

Solo
|---------------------------|
|-9-10-9---------9-10-9-----|
|--------9-11-----------9---| x2
|-------------------------9-|
|---------------------------|
|---------------------------|

Bridge
|---------------------------|
|-9-10-9---------9-10-9-----|
|--------9-11-----------9---| x2
|-------------------------9-|
|---------------------------|
|---------------------------|

Then
|-12-12-12-12-12-12-12-12-|
|-------------------------|
|-------------------------|
|-------------------------|
|-------------------------|
|-------------------------|

|-x-x-x-x-x-x-x-x-|
|-x-x-x-x-x-x-x-x-|
|-x-x-x-x-x-x-x-x-|
|-----------------|
|-----------------|
|-----------------|

Final Chorus
|-------------------------|
|-------------------------|
|-------------6-----2-----|
|-2-----4-----6(x8)-2(x8)-|
|-2(x8)-4(x8)-4-----0-----|
|-2-----4-----------------|

|----------------------------|
|----------------------------|
|-------------6-----4--------|
|-2-----4-----6(x8)-4(x5)----|
|-2(x8)-4(x8)-4-----2--------|
|-2-----4----------------12/-|

|-------------------------|
|-------------------------|
|-------------6-----2-----|
|-2-----4-----6(x8)-2(x8)-|
|-2(x8)-4(x8)-4-----0-----|
|-2-----4-----------------|

|-------------------------|
|-------------------------|
|-------------6-----4-----|
|-2-----4-----6(x8)-4(x5)-|
|-2(x8)-4(x8)-4-----2-----|
|-2-----4-----------------|





*Guitar 2:
INTRO/Verse:
|-------2-------2-------5-----4-------2--|
|---2-------2-------2-----2------2-------|
|-4---4---4---4---4---4-----4------4-----|
|----------------------------------------|
|----------------------------------------|
|----------------------------------------|

|-------2---------------2----------------5------4-------4-------|
|---2-----2---2-----2-----2---2------2-----2-------2------2--2--|
|-4---4-----4----4----4-----4------4---4-----4-------4-----4----|
|---------------------------------------------------------------|
|---------------------------------------------------------------|
|---------------------------------------------------------------|


Chorus 1&2:
|-------2-------2-------5-----4-------2--|
|---2-------2-------2-----2------2-------|
|-4---4---4---4---4---4-----4------4-----|
|----------------------------------------|
|----------------------------------------|
|----------------------------------------|

|-------2---------------2----------------5------4-------4-------|
|---2-----2---2-----2-----2---2------2-----2-------2------2--2--|
|-4---4-----4----4----4-----4------4---4-----4-------4-----4----|
|---------------------------------------------------------------|
|---------------------------------------------------------------|
|---------------------------------------------------------------|


2nd Verse: starts when Hayley sings “hypnotic hypnotic….”
e----------------------------------------------|
B----------------------------------------------|
G--9-9-9-9-9-9-9-9--13-13-13-13---16-16-16-16--|
D--x-x-x-x-x-x-x-x---x--x--x--x----x--x--x--x--|
A--7-7-7-7-7-7-7-7--11-11-11-11---14-14-14-14--|
E----------------------------------------------|
			
e-------------------------------------|
B-------------------------------------|
G--9-9-9-9-9-9-9-9--6-6-6-6--4-4-4-4--|
D--x-x-x-x-x-x-x-x--x-x-x-x--x-x-x-x--|
A--7-7-7-7-7-7-7-7--4-4-4-4--2-2-2-2--|
E-------------------------------------|


Solo
e--------------------------------------------|
B--------------------------------------------|
G--2------6-------------2--------------------|
D--2-x16--6-x8---2------2-x16--4------2------|
A--0------4------2-x8---0------4-x8---2-x8---|
E----------------0-------------2------0------|

Bridge
e------------------|
B------------------|
G--2~--2~--2~--2~--|
D--2~--2~--2~--2~--|
A--0~--0~--0~--0~--|
E------------------|
 
|-------------------------|
|-------------------------|
|-------------6-----2-----|
|-2-----4-----6(x8)-2(x8)-|
|-2(x8)-4(x8)-4-----0-----|
|-2-----4-----------------|

|-------------------------|
|-------------------------|
|-------------6-----8-----|
|-2-----4-----6(x8)-8(x5)-|
|-2(x8)-4(x8)-4-----6-----|
|-2-----4-----------------|


Final Chorus

|-------------------------|
|-------------------------|
|-------------6-----2-----|
|-2-----4-----6(x8)-2(x8)-|
|-2(x8)-4(x8)-4-----0-----|
|-2-----4-----------------|

|-------------------------|
|-------------------------|
|-------------6-----8-----|
|-2-----4-----6(x8)-8(x5)-|
|-2(x8)-4(x8)-4-----6-----|
|-2-----4-----------------|

|--------------------------------------|
|-9---(x4)-7---(x4)-9---(x4)-10---(x4)-|
|---9--------9--------9---------9------|
|--------------------------------------|
|--------------------------------------|
|--------------------------------------|

|-------------------------------------|
|-9---(x4)-7---(x4)-12---(x4)-10-(x5)-|
|---9--------9--------9--------9------|
|-------------------------------------|
|-------------------------------------|
|-------------------------------------|

Tap to rate this tab
 
# A B C D E F G H I J K L M N O P Q R S T U V W X Y Z