Song name
# A B C D E F G H I J K L M N O P Q R S T U V W X Y Z

Paramore - Sunday Bloody Sunday tab

-------------------------------------------------------------------------------
                             SUNDAY BLOODY SUNDAY - Paramore
-------------------------------------------------------------------------------
Tabbed by: Michael Kreick
Email: michael.kreick@gmail.com

Tuning: Drop C#  (C#, G#, C#, F#, A#, D#)   Note: Guitars in both the original recording 
by U2 and the cover by Paramore are tuned a few cents sharp.
You will have to tune by ear if you want to play along with either recording, but Drop 
C# is the best place to start.

Also, this tab may be a little more difficult to play than other versions, but it's complete.



Intro and Verse 1 (0:00 - 0:25), Verse 2 (0:54 - 1:17), Verse 3 (1:44 - 2:06), Verse 4 
(2:34 - 2:59)

    Repeat these 3 bar chords, listening for rhythm and dynamics.

D#|-------2-------5-------x---------------------------------------------------|
A#|-------3-------5-------x---------------------------------------------------|
F#|-------4-------7-------7---------------------------------------------------|
C#|-------4-------7-------7---------------------------------------------------|
G#|-------2-------5-------5---------------------------------------------------|
C#|-------x-------x-------5---------------------------------------------------|


Pre-choruses (0:26 - 0:40) & (2:19 - 2:33)

                                          Crescendo into choruses.

D#|-------2-------0-------2-------0-------000000000---------------------------|
A#|-------3-------3-------3-------3-------333333333---------------------------|
F#|-------2-------2-------2-------2-------222222222---------------------------|
C#|-------0-------0-------0-------0-------000000000---------------------------|
G#|-------0-------0-------0-------0-------000000000---------------------------|
C#|-------0-------2-------4-------2-------222222222---------------------------|


Choruses (0:41 - 0:53), (1:18 - 1:29), (2:07 - 2:18), Chorus/Bridge (3:00 - 4:00) - 
(Rhythm Guitar)


D#|-------2-------5-------x---------------------------------------------------|
A#|-------3-------5-------x---------------------------------------------------|
F#|-------4-------7-------7---------------------------------------------------|
C#|-------4-------7-------7---------------------------------------------------|
G#|-------2-------5-------5---------------------------------------------------|
C#|-------x-------x-------5---------------------------------------------------|


Choruses (1:18 - 1:29), (2:07 - 2:18), Chorus/Bridge (3:00 - 4:00) - (Lead Guitar)

    *This pattern is identical to The Edge's intro to the original song, just an octave higher.

    Repeat.

D#|--------14----------14----------12----------12-----|
A#|-----15----15----15----15----15----15----15----15--|
F#|--16----------14----------12----------12-----------|
C#|---------------------------------------------------|
G#|---------------------------------------------------|
C#|---------------------------------------------------|


Post-Choruses (1:30 - 1:43), (4:01 - end) - (Rhythm Guitar)


D#|---5-------x-------2--------------------------------------|
A#|---3-------x-------3--------------------------------------|
F#|---2-------7-------2--------------------------------------|
C#|---2-------7-------0--------------------------------------|
G#|---0-------5-------0--------------------------------------|
C#|---x-------5-------0--------------------------------------|


Post-Chorus (1:30 - 1:43) - (Lead Guitar)

    Repeat.

D#|--17-------------15-14----------12---------|
A#|-----15----15-------------15----------15---|
F#|--------12----12-------14----14----14------|
C#|-------------------------------------------|
G#|-------------------------------------------|
C#|-------------------------------------------|
Tap to rate this tab
# A B C D E F G H I J K L M N O P Q R S T U V W X Y Z