Song name
# A B C D E F G H I J K L M N O P Q R S T U V W X Y Z

Paramore - Just Like Me tab

I made this tab because any that had sounded like the original, hope you like it
Intro:
E|-------------------------------------------|
B|-------------------------------------------|
G|-------------------------------------------|
D|---2--0------2--0-------2--0-------2--0----|
A|--4----4-4--4-----4-4--3-----3-3--3----3-3-|
D|-4--4---4--4--4----4--3--3----3--3--3---3--|x5 or 6 i don't now

Chorus:
E|---------------------------------------|
B|---------------------------------------|
G|---------------------------------------|
D|-XXX-777777-999999-555555-555555-------|
A|-XXX-777777-777777-555555-555555-------|
D|-XXX-777777-777777-555555-555555-------|x2

End of chorus:
Lead:
E|-----------------------------------|
B|-----------------------------------|
G|------------------9^---------------|
D|-9-11-9-11-9-11-9------------------|
A|-----------------------------------|
D|-----------------------------------|x2

Rythmic:
E|---------------------|
B|---------------------|
G|---------------------|
D|-7~0~----------------|
A|-7~0~----------------|
D|-7~0~----------------|x2

Repeat intro:
E|-------------------------------------------|
B|-------------------------------------------|
G|-------------------------------------------|
D|---2--0------2--0-------2--0-------2--0----|
A|--4----4-4--4-----4-4--3-----3-3--3----3-3-|
D|-4--4---4--4--4----4--3--3----3--3--3---3--|x5 or 6 i don't now

Chorus:
E|---------------------------------------|
B|---------------------------------------|
G|---------------------------------------|
D|-XXX-777777-999999-555555-555555-------|
A|-XXX-777777-777777-555555-555555-------|
D|-XXX-777777-777777-555555-555555-------|x2

End of chorus:
Lead:
E|-----------------------------------|
B|-----------------------------------|
G|------------------9^---------------|
D|-9-11-9-11-9-11-9------------------|
A|-----------------------------------|
D|-----------------------------------|

Rythmic:
E|---------------------|
B|---------------------|
G|---------------------|
D|-7~0~----------------|
A|-7~0~----------------|
D|-7~0~----------------|

Second chorus(I do not know the name of this part of the song)
E|------------------------------------------------------|
B|------------------------------------------------------|
G|------------------------------------------------------|
D|-55-XXX-3---------3-XXX---------33-XXX-3-------555555-|
A|-55-XXX-3---------3-XXX---------33-XXX-3-------555555-|
D|-55-XXX-3-5-7-7\3-3-XXX-3-5-7-3-33-XXX-3-5-7-5-555555-|

E|------------------------------------------------------|
B|------------------------------------------------------|
G|------------------------------------------------------|
D|-555555-----------3-XXX---------33-XXX-3-------555555-|
A|-555555-----------3-XXX---------33-XXX-3-------555555-|
D|-555555-3-5-7-7\3-3-XXX-3-5-7-3-33-XXX-3-5-7-5-555555-|

End of chorus:
Lead:
E|-----------------------------------|
B|-----------------------------------|
G|------------------9^---------------|
D|-9-11-9-11-9-11-9------------------|
A|-----------------------------------|
D|-----------------------------------|

Rythmic:
E|---------------------|
B|---------------------|
G|---------------------|
D|-7~0~----------------|
A|-7~0~----------------|
D|-7~0~----------------|

Solo:
E----------------------------------------|
B-15-15-15-15-13-12-10-------------7-----|
G----------------------7-9-7-9-7-9---9---|
D----------------------------------------|
A----------------------------------------|
D----------------------------------------|

Chorus:
E|------------------------------------|
B|------------------------------------|
G|------------------------------------|
D|--777777-999999-555555-555555-------|
A|--777777-777777-555555-555555-------|
D|--777777-777777-555555-555555-------|x2

E|-------------------------------------------------|
B|-------------------------------------------------|
G|-------------------------------------------------|
D|-777777-999999-555555-55-XX-55-XX-55-XX-55-XX-7--|
A|-777777-777777-555555-55-XX-55-XX-55-XX-55-XX-7--|
D|-777777-777777-555555-55-XX-55-XX-55-XX-55-XX-7--|

End of chorus:
Lead:
E|-----------------------------------|
B|-----------------------------------|
G|------------------9^---------------|
D|-9-11-9-11-9-11-9------------------|
A|-----------------------------------|
D|-----------------------------------|X6

Rythmic:
E|---------------------|
B|---------------------|
G|---------------------|
D|-7~0~----------------|
A|-7~0~----------------|
D|-7~0~----------------|X6

I hope you liked it
Tap to rate this tab
# A B C D E F G H I J K L M N O P Q R S T U V W X Y Z