Song name
# A B C D E F G H I J K L M N O P Q R S T U V W X Y Z

Paramore - Still Into You Acoustic tab

Still into You Paramore (Acoustic)
Tabbed by: Jompyo :D
Tuning:  Standard
*=palm mute
Intro: guitar 1
e|-----------------------------------------------------------------|
B|-----------------------------------------------------------------|
G|-----------------------------------------------------------------|
D|-3---2-------3-----2--------3---2-----3---2----------------------|
A|-3--0-3------3--0-3-3-------3--0-3----3--0-3--3------------------|
E|-1-1---------1-1------------1-1-------1-1------------------------|
Guitar 2
e|-----------------------------------------------------------------|
B|-101010-8--------------------------------------------------------|
G|----------10-9---------------------------------------------------|
D|---------------10------------------------------------------------|x4
A|-----------------------------------------------------------------|
E|-----------------------------------------------------------------|
    ***   * *  * *
Verse1: guitar 1
e|-----------------------------------------------------------------|
B|-----------------------------------------------------------------|
G|-----------------------------------------------------------------|
D|-3---2-------3-----2--------3---2-----3---2----------------------|
A|-3--0-3------3--0-3-3-------3--0-3----3--0-3--3------------------|
E|-1-1---------1-1------------1-1-------1-1------------------------|

e -----------------------------------------------------------------|
B -----------------------------------------------------------------|
G -7-----------7-------------7-----------7-------------------------|
D -7------2----7-------2-----7------2----7-------2-----------------|
A -5-5-0-3-----5--5-0-3--3---5--5-0-3----5--5-0-3--3---------------|
E -----------------------------------------------------------------|
Guitar 2
e|---------------------------------------------------------------------|
B|-101010-8------------------------------------------------------------|
G|----------10-9-------------------------------------------------------|
D|---------------10-----------------------------------------------|x16-|
A|---------------------------------------------------------------------|
E|---------------------------------------------------------------------|
    ***   * *  * *
Refrain: Guitar 1
e|-----------------------------------------------------------------|
B|-----------------------------------------------------------------|
G|--------------------------10101010101010101010101010-------------|
D|-8888888--10101010101010--10101010101010101010101010-------------|
A|-8888888--10101010101010--88888888888888-------------------------|
E|-6666666--8888888------------------------------------------------|
   *******  *****           *************

Chorus: guitar 1
e|-----------------------------------------------------------------|
B|-----------------------------------------------------------------|
G|--------------------------10101010101010101010101010-------------|
D|-8888888--10101010101010--1010101010101010101010101010-----------|x2
A|-8888888--10101010101010--88888888888888-------------------------|
E|-6666666--8888888------------------------------------------------|
Guitar 2
e|-----6---------4-----------6----------7-6-------------------------|
B|---7---7-----7---7-------7---7------7-----7-----------------------|
G|-6------6---6------6---6-------6---6------------------------------|
D|------------------------------------------------------------------|
A|------------------------------------------------------------------|
E|------------------------------------------------------------------|

E -----6----------4-------------6-----------6----------------------|
B ---7---7------7---7---------7---7-------7---7--------------------|
G -6------6---6------6---6---6-------6---6-------------------------|
D -----------------------------------------------------------------|
A -----------------------------------------------------------------|
E -----------------------------------------------------------------|
Guitar 1
e|-----------------------------------------------------------------|
B|-----------------------------------------------------------------|
G|--------------------------7777777--10101010101010----------------|
D|-8888888--10101010101010--7777777--10101010101010----------------|
A|-8888888--10101010101010--5555555--8888888-----------------------|
E|-6666666--8888888------------------------------------------------|



Guitar 2
e|----6------6------4------4------6------6------6-----6------------|
B|--7---7--7---7--7---7--7---7--7---7--7---7--7---7--7--7----------|
G|-8------8------6------6-----6------6------6------6---------------|
D|-----------------------------------------------------------------|
A|-----------------------------------------------------------------|
E|-----------------------------------------------------------------|

e|-----------------------------------------------------------------|
B|-----------------------------------------------------------------|
G|-----------------------------------------------------------------|
D|-8888888--10-----------------------------------------------------|
A|-8888888--10-----------------------------------------------------|
E|-6666666--8------------------------------------------------------|
Guitar 2
e|----6------6----6------------------------------------------------|
B|--7---7--7---7--7------------------------------------------------|
G|-6------6-------6------------------------------------------------|
D|-----------------------------------------------------------------|
A|-----------------------------------------------------------------|
E|-----------------------------------------------------------------|
                  *
Repeat : Intro
Verse
Refrain
Chorus
Lead:
e|-------------------------------------------------------------------|
B|-----6-55---------6-55----33333-5-6--------------------------------|
G|---------55------------55-----------5555555------------------------|
D|-333---------333---------------------------------------------------|x4
A|-------------------------------------------------------------------|
E|-------------------------------------------------------------------|
Bridge: guitar 1
e|-----------------------------------------------------------------|
B|-----------------------------------------------------------------|
G|-1010101010101010101010101010--7777777---------------------------|
D|-1010101010101010101010101010--7777777--10101010101010-----------|x2
A|-88888888888888----------------5555555--10101010101010-----------|
E|----------------------------------------8888888------------------|
Repeat: Refrain
Chorus
Guitar 2
e|----6------4------4------6------7------6-----7-------------------|
B|--7---7--7---7--7---7--7---7--7---7--7---7--7--7-----------------|
G|-8-----8-------6-----6------6------6------6-----6----------------|
D|-----------------------------------------------------------------|
A|-----------------------------------------------------------------|
E|-----------------------------------------------------------------|

e|----6------4------4------6------6------7------6------------------|
B|--7---7--7---7--7---7--7---7--7---7--7---7--7---7----------------|
G|-8-----8-------6-----6------6------6-------6------6--------------|
D|-----------------------------------------------------------------|
A|-----------------------------------------------------------------|
E|-----------------------------------------------------------------|

e|----6------6------9------9-------4-----4-------6-----6-----------|
B|--7---7--7---7--7---7--7---7---7--7---7--7---7--7---7--7---------|
G|-8-----8------6------6------6-------6------6------6--------------|
D|-----------------------------------------------------------------|
A|-----------------------------------------------------------------|
E|-----------------------------------------------------------------|
Outro time. Im still into you, Im still into you, Im still into you.
e|----6------6------9------9------6------6------9------9-----------|
B|--7---7--7---7--7---7--7---7--7---7--7---7--7---7--7---7---------|
G|-8--=--8------6------6------6------6------6------6---------------|
D|-----------------------------------------------------------------|
A|-----------------------------------------------------------------|
E|-----------------------------------------------------------------|
Im still into you.
Guitar 2
e|----6------6----9999999------------------------------------------|
B|--7---7--7---7--7777777------------------------------------------|
G|-6------6-------6666666------------------------------------------|
D|-----------------------------------------------------------------|
A|-----------------------------------------------------------------|
choco_mucho8@yahoo.com
My 1st tab ever!!  Thanks for viewing =) have fun
Pls. Rate, comment,
Tap to rate this tab
# A B C D E F G H I J K L M N O P Q R S T U V W X Y Z