Song name
# A B C D E F G H I J K L M N O P Q R S T U V W X Y Z

Paramore - Hallelujah Acoustic tab

Highlighted       Show chord diagrams
Hallelujah - Paramore
Capo 1 
This is from just listening to youtube :
http://www.youtube.com/watch?v=aO2n1NGCEqU

Ok just listen to the video.
I lost track of the chords somewhere around the instrumental and if anyone can 
help me out tell me!


Intro
E|--x-0-2-5-5--|
B|--3-3-3-3-2--|
G|--2-2-2-2-2--|
D|--0-0-0-0-0--|
A|-------------|
D|-------------|
2x

E|--x-0-2-5-5----x-0-2-5-5--|
B|--3-3-3-3-2----3-3-2-2-2--|
G|--2-2-2-2-2----4-4-2-2-2--|
D|--0-0-0-0-0----4-4-2-2-0--|
A|--0-0-0-0-0----2-2-0-0-0--|
D|--0-0-0-0-0---------------|
2x

Verse
E|--x--2--x--|
B|--3--3--2--|
G|--2--4--2--|
D|--0--4--2--|
A|--0--2--0--|
D|--0--------|
    D  Bm A


Chorus
E|--x--2--3--|
B|--3--3--3--|
G|--2--4--0--|
D|--0--4--0--|
A|--0--2--2--|
D|--0-----x--|
    D  Bm G

Bridge
E|-------------------|
B|-------------------|
G|-------------------|
D|--4-5-7-12--4-5-7--|
A|--4-5-7-12--4-5-7--|
D|--4-5-7-12--4-5-7--|


Intro
D D
D Bm A D Bm A

D
Somehow everything's gonna fall
Bm A
Right in to place
D
If we only had a way to make it all
Bm A
Fall faster everyday

D 
If only time flew like
Bm A
A dove
D
We gotta make it fly
Bm A
Faster than I'm falling in love

D x2

D 			Bm G
This time we're not givin up
D 			Bm G
Let's make it last forever, screamin
D Bm G
Hallelujah
D Bm G
Lets make it last forever

D 					Bm A
Holdin on to patience wearin thin
D 					Bm A
I can't force these eyes to see the end
D
If only time flew like
Bm A
A dove
D
We could watch it fly
Bm A
And just keep lookin up
D C#DA x3

This time we're not givin up
Let's make it last forever
Screamin
Hallelujah
We'll make it last forever

F#GAD F#GA
And we've got time
On our hands
And we've got
Got nothing but time on our hands
Got nothing but
Got nothing but
Got nothing but time on our hands

Instrumental

This time we're not givin up
Let's make it last forever
Screamin
Hallelujah, Hallelujah
Let's make it last forever
Tap to rate this tab
 
# A B C D E F G H I J K L M N O P Q R S T U V W X Y Z