Song name
# A B C D E F G H I J K L M N O P Q R S T U V W X Y Z

Paranoid Social Club - Basketball tab

-------------------------------------------------------------------------------
			     BASKETBALL - Paranoid Social Club
-------------------------------------------------------------------------------
Tabbed by: Chris Gill
Email:	CGill1403@aol.com

Tuning:

INTRO
e|----------------------------------------------------------------------------|
B|----------------------------------------------------------------------------|
G|--9--9--9-10-9-7-12--12--12-13-12-10-11--11--11-12-11-9-10--10--10-11-10-8--|
D|--9--9--9-10-9-7-12--12--12-13-12-10-11--11--11-12-11-9-10--10--10-11-10-8--| x2
A|--7--7--7--8-7-5-10--10--10-11-10--8--9---9---9-10--9-7--8---8---8--9--8-6--|
E|----------------------------------------------------------------------------|

VERSE
e|-----------------------------------------------|
B|--5~----8~----7~----6~----5~----8~----7~----6~-|
G|-----------------------------------------------|
D|-----------------------------------------------| x2
A|-----------------------------------------------|
9|-----------------------------------------------|

PRECHORUS
e|--------------------------------------------------|
B|--------------------------------------------------|
G|--------------2--2--2--2--5--5--5--5--4--5--4--4--|
D|--2--2--2--2--2--2--2--2--5--5--5--5--4--5--4--4--|
A|--2--2--2--2--0--0--0--0--3--3--3--3--2--3--2--2--| X4
E|--0--0--0--0--------------------------------------|

CHORUS
e|----------------------------------------------------------------------------|
B|----------------------------------------------------------------------------|
G|--9--9--9-10-9-7-12--12--12-13-12-10-11--11--11-12-11-9-10--10--10-11-10-8--|
D|--9--9--9-10-9-7-12--12--12-13-12-10-11--11--11-12-11-9-10--10--10-11-10-8--| x4
A|--7--7--7--8-7-5-10--10--10-11-10--8--9---9---9-10--9-7--8---8---8--9--8-6--|
E|----------------------------------------------------------------------------|


INTRO

VERSE

PRECHORUS

CHORUS

VERSE

PRECHORUS

CHORUS

VERSE

PRECHORUS

CHORUS 

CHORUS (Fade Out)


| /  slide up
| \  slide down
| h  hammer-on
| p  pull-off
| ~  vibrato
| +  harmonic
| x  Mute note
===============================================================================
Tap to rate this tab
# A B C D E F G H I J K L M N O P Q R S T U V W X Y Z