Song name
# A B C D E F G H I J K L M N O P Q R S T U V W X Y Z

Parkway Drive - Sparks tab

   

This tab is in D standard tuning.

   D |-----7-9-7----------------------------------| 
   A |---7--------10---9-10-10---10-12-10---------|
   F |-----------------9--9--9---11-11-11---------|
   C |--------------------------------------------|
   G |-9------------------------------------------|
   D |--------------------------------------------|


   D |-----7-9-7----------------------------------| 
   A |---7--------10---9-10-10---10-12-10---------|
   F |-----------------9--9--9---11-11-11---------|
   C |--------------------------------------------|
   G |-9------------------------------------------|
   D |--------------------------------------------|

   
   D |----------------5-/9-----------10/12-10--9--| (Let the 0 note ring)
   A |----5-/7-/10-\7------10---9-10-12/14-12-10--|
   F |-0------------------------------------------|
   C |--------------------------------------------|
   G |--------------------------------------------|
   D |--------------------------------------------|

   D |----------------5-/9-----------7h9p7--------| (Let the 0 note ring)
   A |----5-/7-/10-\7------10---9-10-------109---|
   F |-0------------------------------------------|
   C |--------------------------------------------|
   G |--------------------------------------------|
   D |--------------------------------------------|


   D |---5---5---5---5---4---4---4---4---4---4---4---4| 
   A |-----7-------7-------7-------7-------7-------7--|
   F |------------------------------------------------| x4
   C |-4-------4-------4-------4----------------------|
   G |---------------------------------7-------7------|
   D |------------------------------------------------|


   D |---0---0-5-0---0-4-0---0-4-4h5p4------------| 
   A |-----7-------7-------7-----------5-7--------| 
   F |--------------------------------------------|
   C |-0------------------------------------------|
   G |--------------------------------------------|
   D |--------------------------------------------|



   D |---0---0-5-0---0-4-0---0-4/5-4-2------------| 
   A |-----7-------7-------7---------2------------| 
   F |--------------------------------------------|
   C |-0------------------------------------------|
   G |--------------------------------------------|
   D |--------------------------------------------|
Tap to rate this tab
# A B C D E F G H I J K L M N O P Q R S T U V W X Y Z