Song name
# A B C D E F G H I J K L M N O P Q R S T U V W X Y Z

Parkway Drive - Sparks tab

PARKWAY DRIVE

SPARKS

TABBED BY andherembrace

ACOUSTIC GTRS ARRANGED FOR D-G-C-F-A-D

ELECTRIC GTRS-A#-F-A#-D#-G-C





acoustic  finger picked
--------7--9--7---5---4-5-4--5-7-5--------4--7--9--7---5---4-5-4--5-7-5-|
-7--10--9--7--5---7---5---5--7---7-----7--7--9--7--5---7---5---5--7---7-|
------------------------------------------------------------------------|
-4--7----------------------------------4--------------------------------|
------------------------------------------------------------------------|
------------------------------------------------------------------------|

                                                                   ^
-------5---------9-------1010-12-10--9--------5---------9-------7-797------|
---5/7---7--7/10---10-\9-1212/14-12-10----5/7---7--7/10---10-\9-9-----10-9-|
---------------------------------------------------------------------------|
-0-------------------------------------0-----------------------------------|
---------------------------------------------------------------------------|
---------------------------------------------------------------------------|




--------7--9--7---5---4-5-4--5-7-5--------4--7--9--7---5---4-5-4--5-7-5-|
-7--10--9--7--5---7---5---5--7---7-----7--7--9--7--5---7---5---5--7---7-|
------------------------------------------------------------------------|
-4--7----------------------------------4--------------------------------|
------------------------------------------------------------------------|
------------------------------------------------------------------------|

                                                                   ^
-------5---------9-------1010-12-10--9--------5---------9-------7-797------|
---5/7---7--7/10---10-\9-1212/14-12-10----5/7---7--7/10---10-\9-9-----10-9-|
---------------------------------------------------------------------------|
-0-------------------------------------0-----------------------------------|
---------------------------------------------------------------------------|
---------------------------------------------------------------------------|



--------7--9--7---5---4-5-4--5-7-5--------4--7--9--7---5---4-5-4--5-7-5-|
-7--10--9--7--5---7---5---5--7---7-----7--7--9--7--5---7---5---5--7---7-|
------------------------------------------------------------------------|
-4--7----------------------------------4--------------------------------|
------------------------------------------------------------------------|
------------------------------------------------------------------------|

                                                                   ^
-------5---------9-------1010-12-10--9--------5---------9-------7-797------|
---5/7---7--7/10---10-\9-1212/14-12-10----5/7---7--7/10---10-\9-9-----10-9-|
---------------------------------------------------------------------------|
-0-------------------------------------0-----------------------------------|
---------------------------------------------------------------------------|
---------------------------------------------------------------------------|




--------7--9--7---5---4-5-4--5-7-5--------4--7--9--7---5---4-5-4--5-7-5-|
-7--10--9--7--5---7---5---5--7---7-----7--7--9--7--5---7---5---5--7---7-|
------------------------------------------------------------------------|
-4--7----------------------------------4--------------------------------|
------------------------------------------------------------------------|
------------------------------------------------------------------------|

                                                                   ^
-------5---------9-------1010-12-10--9--------5---------9-------7-797------|
---5/7---7--7/10---10-\9-1212/14-12-10----5/7---7--7/10---10-\9-9-----10-9-|
---------------------------------------------------------------------------|
-0-------------------------------------0-----------------------------------|
---------------------------------------------------------------------------|
---------------------------------------------------------------------------|



----5---5-----5---5-----4---4-----4---4--|
------7---------7---------7---------7----|
-----------------------------------------|
-4---------4---------4-------------------|
-------------------------------7---------|
-----------------------------------------|


----5---5-----5---5-----4---4-----4---4--|
------7---------7---------7---------7----|
-----------------------------------------|
-4---------4---------4-------------------|
-------------------------------7---------|
-----------------------------------------|


----5---5-----5---5-----4---4-----4---4--|
------7---------7---------7---------7----|
-----------------------------------------|
-4---------4---------4-------------------|
-------------------------------7---------|
-----------------------------------------|


----5---5-----5---5-----4---4-----4---4--|
------7---------7---------7---------7----|
-----------------------------------------|
-4---------4---------4-------------------|
-------------------------------7---------|
-----------------------------------------|


                            __
---------------------------/  \---------|
-----7---10---7---9---7---9-10-9\7---7--|
---9---9----9---9---9---9----------9----|
-0--------------------------------------|
----------------------------------------|
----------------------------------------|


----------------------------------------|
-----7---10---7---9---7----10-9--7------|
---9---9----9---9---9---9---9-9--6------|
-0--------------------------------------|
----------------------------------------|
----------------------------------------|




1:41


----5---5-----5---5-----4---4-----4---4--|
------7---------7---------7---------7----|
-----------------------------------------|
-4---------4---------4-------------------|
-------------------------------7---------|
-----------------------------------------|
drop a#
----------------------------------------|
----------------------------------------|
----------------------------------------|
----------------------------------------|
-6-6-6-6--------------------------------|
-6-6-6-6--------------------------------|



----5---5-----5---5-----4---4-----4---4--|
------7---------7---------7---------7----|
-----------------------------------------|
-4---------4---------4-------------------|
-------------------------------7---------|
-----------------------------------------|

----------------------------------------|
----------------------------------------|
----------------------------------------|
----------------------------------------|
-6-6-6-6--------------------------------|
-6-6-6-6--------------------------------|




----5---5-----5---5-----4---4-----4---4--|
------7---------7---------7---------7----|
-----------------------------------------|
-4---------4---------4-------------------|
-------------------------------7---------|
-----------------------------------------|

----------------------------------------|
----------------------------------------|
----------------------------------------|
----------------------------------------|
-2-2-2-2--------------------------------|
-2-2-2-2--------------------------------|


----5---5-----5---5-----|
------7---------7-------|
------------------------|
-4---------4------------|
------------------------|
------------------------|

------------------------|
------------------------|
------------------------|
------------------------|
-2-2-2-2----------------|
-2-2-2-2----------------|






1:59



1
--------------------------------------|
--------------------------------------|
-------------------6-8-6--------------|
-6-----------------4-6-4--------------|
-6-----------------4-6-4--------------|
-6-----------------4/6-4--------------|
2
--------------------------------------|
--------------------------------------|
----11-13-10---8---6-8-6--------------|
-6---9-11--9---6---4-6-4--------------|
-6---9-11--9---6---4-6-4--------------|
-6---9/11--9---6-0-4/6-4--------------|
                 *

--------------------------------------|
--------------------------------------|
-------------------6-8-6--------------|
-6-----------------4-6-4--------------|
-6-----------------4-6-4--------------|
-6-----------------4/6-4--------------|
2
--------------------------------------|
--------------------------------------|
----11-13-10---8---6-8-6--------------|
-6---9-11--9---6---4-6-4--------------|
-6---9-11--9---6---4-6-4--------------|
-6---9/11--9---6-0-4/6-4--------------|
                 *


1
----------------------------------------------------------|
----------------------------------------------------------|
----------------------------------------------------------|
--------------------------------------------9--8--6--4----|
-2--------------------------------2-----------------------|
-2--------------------------------2-----------------------|
2
----------------------------------------------------------|
----------____------____----------------------------------|
---------/    \----/    \---------------------------------|
--------8--9-8-6--8--9-8-6-4/6-------------13--11--9--8---|
-2--------------------------------------------------------|
-2--------------------------------------------------------|
Tap to rate this tab
# A B C D E F G H I J K L M N O P Q R S T U V W X Y Z