Song name
# A B C D E F G H I J K L M N O P Q R S T U V W X Y Z

Parokya Ni Edgar - Orange tab

Song Title:  Orange
Artist/Band: Parokya Ni Edgar
Album/Year:  Middle-Aged Juvenile Novelty Pop Rockers (2010)

Tabbed By:   Pauz Prima (primesenthyx@yahoo.com) - fb

----------------------------------------------------------------------------------------------

INTRO:


Guitar1:

|-4h5-4----------------------------------------4h5-4-------------5~~-----5-----5h7-5--|
|-------5---------5~-----7~-----------------/5-------5---------5-5~~-5/7---5h7--------|
|---------6-4-6/7----6/7----7po6-4~-6po4-2~~-----------6-4-6/7------------------------|
|-------------------------------------------------------------------------------------|
|-------------------------------------------------------------------------------------|
|-------------------------------------------------------------------------------------|

|-4h5-4----------------------------------------4h5-4-------------5~~----------------|
|-------5---------5~-----7~-----------------/5-------5---------5-5~~-----5----------|
|---------6-4-6/7----6/7----7po6-4~-6po4-2~~-----------6-4-6/7-------6/7---7po6-4-6-|
|-----------------------------------------------------------------------------------|
|-----------------------------------------------------------------------------------|
|-----------------------------------------------------------------------------------|


VERSES: A-Bm-E-A
        A-Bm-E-A-A7


CHORUS: D-C#m-Bm-E-A-A7
        D-C#m-Bm-E-A

Guitar1:

  D             C#m          Bm         E        A  -  (A7)
|----------------------------------------------------------------------|
|----------------------------------------------------------------------|
|-7-7-77-999-99-6-6-6-77-66-6-4-4-4-444-9-9-9-99/14-14-131313\1111-11--|
|-x-x-xx-xxx-xx-x-x-x-xx-xx-x-x-x-x-xxx-x-x-x-xx-xx-xx-xxxxxx-xxxx-xx--|
|-5-5-55-777-77-4-4-4-55-44-4-2-2-2-222-7-7-7-77/12-12-111111\9-9--9---|
|----------------------------------------------------------------------|

  D             C#m          Bm         E        A
|------------------------------------------------------|
|------------------------------------------------------|
|-7-7-77-999-99-6-6-6-77-66-6-4-4-4-444-9-9-9-99/14~~--|
|-x-x-xx-xxx-xx-x-x-x-xx-xx-x-x-x-x-xxx-x-x-x-xx-xx----|
|-5-5-55-777-77-4-4-4-55-44-4-2-2-2-222-7-7-7-77/12~~--|
|------------------------------------------------------|


INTERLUDE: A-Bm-E-A
           A-Bm-E-A-A7

Guitar1:

|-4h5-4----------------------------------------4h5-4-------------5~~-----5-----5h7-5--|
|-------5---------5~-----7~-----------------/5-------5---------5-5~~-5/7---5h7--------|
|---------6-4-6/7----6/7----7po6-4~-6po4-2~~-----------6-4-6/7------------------------|
|-------------------------------------------------------------------------------------|
|-------------------------------------------------------------------------------------|
|-------------------------------------------------------------------------------------|

|-4h5-4----------------------------------------4h5-4-------------5~~------------------|
|-------5---------5~-----7~-----------------/5-------5---------5-5~~-----5------------|
|---------6-4-6/7----6/7----7po6-4~-6po4-2~~-----------6-4-6/7-------6/7---7po6-4-6~--|
|-------------------------------------------------------------------------------------|
|-------------------------------------------------------------------------------------|
|-------------------------------------------------------------------------------------|



C--------|HORUS: D-C#m-Bm-E-A-A7
---------|        D-C#m-Bm-D-Bm-E-A

Guitar1:

  D             C#m           Bm        E        A  -  (A7)
|----------------------------------------------------------------------|
|----------------------------------------------------------------------|
|-7-7-77/999-99\6-6-6-77\66-6\4-4-4-444/9-9-9-99/14-14-131313\1111-11--|
|-x-x-xx-xxx-xx-x-x-x-xx-xx-x-x-x-x-xxx-x-x-x-xx-xx-xx-xxxxxx-xxxx-xx--|
|-5-5-55/777-77\4-4-4-55\44-4\2-2-2-222/7-7-7-77/12-12-111111\9-9--9---|
|----------------------------------------------------------------------|

  D             C#m          Bm               D              Bm       E                      A --
|-----------------------------------------------------------------------------------------------|
|-----------------------------------------------------------------------------------------------|
|-7-7-77-999-99-6-6-6-77-66-6-4-4-4-444-44-66-7-7-7-777-66-6-4-4-4-444/9-9-9-99-1111-13-1313/14-|
|-x-x-xx-xxx-xx-x-x-x-xx-xx-x-x-x-x-xxx-xx-xx-x-x-x-xxx-xx-x-x-x-x-xxx-x-x-x-xx-xxxx-xx-xxxx-xx-|
|-5-5-55-777-77-4-4-4-55-44-4-2-2-2-222-22-44-5-5-5-555-44-4-2-2-2-222/7-7-7-77-9-9--11-1111/12-|
|-----------------------------------------------------------------------------------------------|


OUTRO:

Guitar1:
  A             G#            F#           F         A--
|-----------------------------------------------------------|
|-----------------------------------------------------------|
|-14-14-14-1414-13-13-13-1313-11-11-11-1111-10-10-10//14~~--|
|-xx-xx-xx-xxxx-xx-xx-xx-xxxx-xx-xx-xx-xxxx-xx-xx-xx--xx----|
|-12-12-12-1212-11-11-11-1111-9--9--9--9-9--8--8--8//-12~~--|
|-----------------------------------------------------------|


/  - slide up
\  - slide down
po - pulloff
h  - hammer on
~  - let ring
x  - dead note

pakirate!!thnx!:D

------------------------------------------------------------------------------------------

> senthyx zone
> senthyx band
Tap to rate this tab
# A B C D E F G H I J K L M N O P Q R S T U V W X Y Z