Guitaretab - guitar tabs
Song name
# A B C D E F G H I J K L M N O P Q R S T U V W X Y Z

Partisans - Police Story tab

--------------------------- Guitar tab -------------------------------------

The Partisans : police Story


Intro
e|-------------------------------------------|
B|-----------5-7-5-----7-8-10~-9-10~---------|
G|---7-6-7-8-------8-7---------------6--7~~--|
D|-------------------------------------------| 
A|-------------------------------------------|
E|-------------------------------------------|

Verse
e|-------------------------------------------------|
B|-------------------------------------------------|
G|---9--9-9-9--------------------------------------|
D|---9--9-9-9--10--10-10-10--9--9-9-9--5-5--7-7----| 7x
A|---7--7-7-7--10--10-10-10--9--9-9-9--5-5--7-7----|
E|--------------8-- 8--8--8--7--7-7-7--3-3--5-5----|
[ Tab from: http://www.guitaretab.com/p/partisans/145381.html ]
chorus
e|----------------------------------------------|
B|----------------------------------------------|
G|-----------------------------------7-7-5-5----|
D|---9--9-9-9---5-5-7-7---9--9-9-9---7-7-5-5----| 3x
A|---9--9-9-9---5-5-7-7---9--9-9-9---5-5-3-3----|
E|---7--7-7-7---3-3-5-5---7--7-7-7--------------|

bridge
e|--------------------------------|
B|--------------------------------|
G|--------------------------------|
D|---9-9-9--7-7-7--5-5-5--4-4-4---| 4x
A|---9-9-9--7-7-7--5-5-5--4-4-4---|
E|---7-7-7--5-5-5--3-3-3--2-2-2---|

-intro 
-verse
-chorus
-verse
-chorus
-bridge
-chorus
-verse
..........................Tabbed by Yan   

lyric:

 James Kelly lied 
he said what the cops wanted him to say
James Kelly told us 
of the shit that went on in the cell of his
Broke his ribs told him not to speak, 
said you're drunk now on your feet
Into the van Kelly did go 
never seen again now everybody knows

James Kelly you're dead 
James Kelly who cares????
James Kelly you're dead 
James Kelly cares

James Kelly's dead


Related for Police Story tab
×
Police Story