Song name
# A B C D E F G H I J K L M N O P Q R S T U V W X Y Z

Passion - My Boo tab

Help us improve GuitareTab! Take a short survey!
-----------------------------------------------------------------------------
			    Passion  My Boo cover
-------------------------------------------------------------------------------
Tabbed by: Richelle
Tuning: normal

| /  slide up
| \  slide down
| h  hammer-on
| p  pull-off
| ~  vibrato
| +  harmonic
| x  Mute note


*(#) - optional if you like


Intro
e|-----------------------------------------------------------------------------|
B|------------5---------------------------(4)-------(2)------------------------|
G|------------4----------------------------4---------2-------------------------|  
D|------------6----------------------------4---------2-------------------------|    3x
A|------------4----------------------------x---------x-------------------------|
E|------------x----------------------------4---------2-------------------------|
    Theres always that one person       that will always have you heart
        You never see it coming         cause your blinded from the start
   Know that youre that one for me its clear for everyone to see
   

e|-------------------------------------------------------------------|
B|---------5---------------------------------------------------------|
G|----4----6----4------2-------------4------4------------------------|
D|----4----6----4------2-------------4------4------------------------|
A|----x----x----x------x-------------x------x------------------------|
E|----4----5----4------2-------------4------4------------------------|
       Oo baby     Ooh   you will always be my boo


Intro (guy)
Intro (girl)

Verse (guy)

Chorus (guy)
Chorus (girl)

Verse (girl)

Chorus (guy)
Chorus (girl)
			
Bridge (guy)
Bridge (girl)

End Chorus (guy)
End Chorus (girl)



Intro, Verses and Choruses are relatively the same tabs.
Some stuff you can add like Passion does.

1.	Playing extra chords on the 3ee, 3ah, and the first 4ah  beats. give and take
e|--------------------------------------------------------------------------|
B|---------5----------------------------------------------------------------|
G|---------4------------------4-4----3-2------2-----------------4------4---|  
D|---------6------------------4--4----3-2------2-----------------4------4---|    
A|---------4------------------x--x----x-x------x-----------------x------x---|
E|---------x------------------4--4----3-2------2-----------------4------4---|
Beat:	     1         2        3 ee & ah 4   & ah 1        2      3      4

2.	Riff  
e|---------------------------------------------------------------------------|
B|------------5--5--h7p5----------------------------------------------------|
G|------------4-----------4--------4---h6p-----------------------------------|
D|------------6--------------6-----4--------4--------------------------------|
A|------------4--------------------x-----------------------------------------|
E|------------x--------------------4-----------------------------------------|

3.	Guitar tapping 




Dont use these tips throughout the whole song, sounds better if used sometimes.




Related for My Boo tab