Song name
# A B C D E F G H I J K L M N O P Q R S T U V W X Y Z

Passion - Cater 2 You tab

----------------------------------------------------------------------------
			     Cater to You - Passion
----------------------------------------------------------------------------


Tabbed by: Mike B. a.k.a Kulang

Email:Michael_barr85@yahoo.com

Website: -Myspace.com/kulang
         -Youtube.com/student11254

Tuning: -standard
        -capo 4th fret

All right, well I remember when I was trying to learn this song and there were no tabs
it.  So now that (at least I think) I can play it.. here are the tabs to help whoever
to read it.  Rate or comment this tab and/or visit my sites.


 Intro
e|------------3--------------------------------------------------------------|
B|----------5------------2h3-------0h1-----------1h3p1-----------------------|
G|--------4--------------2---------0-------------------0---------------------|
D|------5----------------2h4-------0h2--------2-------------2----------------|
A|----3------------------2---------0-----------------------------------------|
E|---------------------------------------------------------------------------|

e|---------------------------------------------2h5p2-------------------------|
B|-------------------------------3-------------------3h5p3-------------------|
G|-------------------------2-------------------------------------2-----------|
D|-------------------4-----------------------------------------------4-------|
A|---0------1/2--------------------------------------------------------------|
E|---------------------------------------------------------------------------|

e|---------------------------------------------------------------------------|
B|-----0-------------------0-------------3-----------------------------------|
G|-----0-------------0-------------------2-----------------------------------|
D|-----0-------0-------------------------4-----------------------------------|
A|---------------------------------------2-----------------------------------|
E|-----0---------------------------------------------------------------------|

e|---------------------------------------------------------------------------|
B|------------------------------3h5---------3h5--------3h5-------------------|
G|----4-------------------------4-----------4----------4---------------------|
D|-----------------5---------------------------------------------------------|
A|-----------3---------------------------------------------------------------|
E|---------------------------------------------------------------------------|

e|---------------------------------------------------------------------------|
B|-----2h3-------------0h1----------------1h3p1------------------------------|
G|-----2---------------0----------------------------0------------------------|
D|-----2h4-------------0h2------------2-------------------2------------------|
A|-----2---------------0-----------------------------------------------------|
E|---------------------------------------------------------------------------|

e|--------------------------------------------2h5p2--------------------------|
B|-----------------------------------3--------------------3h5p3--------------|
G|-------------------------------2-------------------------------------------|
D|---------------------------4-----------------------------------------------|
A|---0-----1----1/2----------------------------------------------------------|
E|---------------------------------------------------------------------------|

e|---------------------------------------------------------------------------|
B|-----0-------------0---------3---------------------------------------------|
G|-----0----------0------------2---------------------------------------------|
D|-----0-------0---------------4---------------------------------------------|
A|-----------------------------2---------------------------------------------|
E|-----0---------------------------------------------------------------------|


 Verse I
e|---------------------3---------------------------------------x-------------|
B|-----------------5----------------2h3---------0h1----------1-x-------------|
G|--------------4-------------------2h4---------0------------0-x-------------|
D|----------5-----------------------2-----------0h2----------2-x-------------|
A|------3---------------------------2-----------0--------------x-------------|
E|-------------------------------------------------------------x-------------|

e|---------------------------------2h5p2-------------------------------------|
B|---------------------------3----------------3---------0------0-------------|
G|----------------------2------------------------2------0----------0---------|
D|-----------------4-------------------------------4----0--------------------|
A|--1--1/2-------------------------------------------------------------------|
E|------------------------------------------------------0--------------------|


e|---------------------------------------------------------------------------|
B|---------------------------------------------------------------------------|
G|---------3-----------------------------------------------------------------|
D|------4--------------------------------------------------------------------|
A|---2-----------------------------------------------------------------------|
E|---------------------------------------------------------------------------|

So that's basically the whole song.


| /  slide up
| h  hammer-on
| p  pull-off
Tap to rate this tab
# A B C D E F G H I J K L M N O P Q R S T U V W X Y Z