Song name
# A B C D E F G H I J K L M N O P Q R S T U V W X Y Z

Passion - Burning In My Soul tab

Burning in my Soul - Passion Band

Tabbed by:
Cameron Harvey
Dalton Meyers

Standard E
Capo on 4th fret

Lead guitar

\ = slide down
b = bend

Intro:

e|-------11----------------11----------------11---------11---------11--------|
B|----12----12----12----12----12-----12---12----12---12----12---12-----------|
G|-13----------13----13-----------13----9----------9-------------------------|
D|------------------------------------------------------------9--------------|
A|---------------------------------------------------------------------------|
E|---------------------------------------------------------------------------|

verse 1:

      E minor                        C add 9                  G
e|-7------------------------------------7---------------------7--------------|
B|-7------------------------------------7---------------------7--------------|
G|---------------------------------------------------------------------------|
D|-6------------------------------------6------------------------------------|
A|-6------------------------------------7---------------------6--------------|
E|------------------------------------------------------------7--------------|

x3

   D
e|-6-------------------------------------------------------------------------|
B|-7-------------------------------------------------------------------------|
G|-6-------------------------------------------------------------------------|
D|---------------------------------------------------------------------------|
A|---------------------------------------------------------------------------|
E|---------------------------------------------------------------------------|


Chorus:

e|----16----16-------16-----16-------14-------11----11-----------------------|
B|-\16----16----16-16-----16---16-12----12-12----12-----12-------------------|
G|---------------------------------------------------------------------------|
D|---------------------------------------------------------------------------|
A|---------------------------------------------------------------------------|
E|---------------------------------------------------------------------------|

verse 2:

      E minor                        C add 9                  G
e|---------------------------------------------------------------------------|
B|---4------------------------------------4---------------------4------------|
G|-----4------------------------------------5---------------------4----------|
D|---------------------------------------------------------------------------|
A|-6------------------------------------7------------------------------------|
E|------------------------------------------------------------7--------------|

x4

Bridge:


e|--9--9--9--9--9--9---9--9--9--9--9--9--7-7-7-7-7-7--7----------------------|
B|--9--9--9--9--9--9---9--9--9--9--9--9--7-7-7-7-7-7--7----------------------|
G|-11-11-11-11-11-11--11-11-11-11-11-11--9-9-9-9-9-9--7----------------------|
D|----------------------------------------------------9----------------------|
A|----------------------------------------------------9----------------------|
E|----------------------------------------------------7----------------------|

x3

Solo:

e|-16----16----16----16----16----12----12----11----11----11------------------|
B|-19b21-19b21-19b21-19b21-19b21-15b17-15b17-14b16-14b16-14b16---------------|
G|---------------------------------------------------------------------------|
D|---------------------------------------------------------------------------|
A|---------------------------------------------------------------------------|
E|---------------------------------------------------------------------------|
Tap to rate this tab
# A B C D E F G H I J K L M N O P Q R S T U V W X Y Z