Song name
# A B C D E F G H I J K L M N O P Q R S T U V W X Y Z

Patent Pending - Drop Dead tab

Strumming Is Pretty Easy To Figure Out By Listening To The Song :)
Drop D Tuning
Everything Should Be Correct, Obviously You Can Change The Power Chords To Their 
Counterparts on Different Strings (EG/ On A String: 2nd Fret and on D String: 9th Fret)

Intro/Pre Chorus


e|----------------------------------------------------------------------------|
B|----------------------------------------------------------------------------|
G|----------------------------------------------864---------------------------|
D|--------44--------------4468-----------8864---xxx---------------------------|
A|----22--22--44-Part 1---2246-----------6642---642---Part 2------------------|
E|----22------44--------------------------------------------------------------|

Verse (Palm Mute When Necessary)
e|---------------------------------------------------------------------------|
B|---------------------------------------------------------------------------|
G|------4--------------------------------------------------------------------|
D|--2---4---4----------------------------------------------------------------|
A|--2---2---4----------------------------------------------------------------|
E|--2-------4----------------------------------------------------------------|

Then Repeat Second Half Of Intro.

Chorus. Strum in three's first time round then slow down for second time round.
e|---------------------------------------------------------------------------|
B|---------------------------------------------------------------------------|
G|------4--------------------------------------------------------------------|
D|--2---4---4----------------------------------------------------------------|
A|--2---2---4----------------------------------------------------------------|
E|--2-------4----------------------------------------------------------------|

Verse 2 Same As Verse 1 But Add This About Half Way Through.
e|---------------------------------------------------------------------------|
B|------9-9-9-9---12-12-11-11------------------------------------------------|
G|-------9-9-9-9----9--9--9--9----X2-----------------------------------------|
D|---------------------------------------------------------------------------|
A|---------------------------------------------------------------------------|
E|---------------------------------------------------------------------------|


Bridge
e|----------------------------------------------------------------------------|
B|----------------------------------------------------------------------------|
G|----------------------------------------------------------------------------|
D|---2--6--4-------2--9--4----------------------------------------------------|
A|---2--6--4-------2--9--4----------------------------------------------------|
E|---2--6--4-------2--9--4----------------------------------------------------|

That's It! Pretty Simple Song But Fun To Play :) Good Band As Well Check Out Their Stuff 
At: http://www.patentpendingmusic.com/

Running Order:
Intro/Pre-Chorus
Verse
Pre-Chorus
Chorus
Pre-Chours (After Chorus)
Verse 2
Pre-Chorus
Chorus
Bridge
Intro (Without Second Part)
Chorus
Tap to rate this tab
# A B C D E F G H I J K L M N O P Q R S T U V W X Y Z