Song name
# A B C D E F G H I J K L M N O P Q R S T U V W X Y Z

Paul Kalkbrenner - Azure Original Mix tab

Bass line:

e|--------------------------------------------|
B|--------------------------------------------|
G|--------------------------------------------|   
D|--------------------------------------------|
A|--------------------------------------------|
E|---7---7-7---7-7---7-7-9-4---4-4---4-4---4-4| 


Bridge to solo:

e|-------------------------------------------------------------------|
B|-------------------------------------------------------------------|
G|-------------------------------------------------------------------|
D|-------------------------------------------------------------------|
A|---------9--11---11-11~~-------------------------------------------|
E|---9/11-------------------11---11-11~~----7---7-7~~----11---11-11~~| 


Guitar solo:


e|----------------------|---------------------|
B|----------------------|---------------------|
G|----------------------|---------------------|
D|---------4---6---6-6~~|--6-6---4------------|
A|---4/6----------------|------------6---6-6~~|
E|----------------------|---------------------|


e|----------------------|---------------------|
B|----------------------|---------------------|
G|----------------------|---------------------|
D|---------4------------|---------------------|
A|---4/6-------2---2-2~~|----2-2/4-4/6---6-6~~|
E|----------------------|--4------------------|


e|----------------------|---------------------|
B|----------------------|---------------------|
G|----------------------|---------------------|
D|---------4---6---6-6~~|--6-6---4------------|
A|---4/6----------------|------------6---6-6~~|
E|----------------------|---------------------|


e|----------------------|---------------------|
B|----------------------|---------------------|
G|----------------------|---------------------|
D|---------4------------|---------------------|
A|---4/6-------2---2-2~~|----2-2/4-4/6---6-6~~|
E|----------------------|--4------------------|


e|----------------------|
B|----------------------|
G|----------------------|
D|----------------------|
A|---4/6-4/6---2~~~~----|
E|----------------------|
Tap to rate this tab
# A B C D E F G H I J K L M N O P Q R S T U V W X Y Z