Song name
# A B C D E F G H I J K L M N O P Q R S T U V W X Y Z

Pavlo - Midnight Dance tab

---------------------------------------------------------------------------
			     Midnight Dance- Pavlo
---------------------------------------------------------------------------
Tabbed by: Zamboni
Email: yowzenwutzee@hotmail.com

Tuning: Standard Concert Pitch

e|----------0--1--0h1p0----0-----------------------------0-0/5--5-7-8-8/10--|
B|----0-1----------------3-------0--1/3~-1-1-3-1-0----0-1-------------------|
G|--2--------------------------2--------------------2-----------------------|
D|--------------------------------------------------------------------------|
A|--------------------------------------------------------------------------|
E|--------------------------------------------------------------------------|

e|--10-10-10--------7-----------12-10-12-12/13-12-10---------10/12--10------|
B|------------10-10---10-9---10----------------------13-12-13----------13-12|
G|--------------------------------------------------------------------------|
D|--------------------------------------------------------------------------|
A|--------------------------------------------------------------------------|
E|--------------------------------------------------------------------------|

e|--------------------------------------------------------------------------|
B|-10------13--12-12~-10~--13-13-12-12~-10~---------------------------------|
G|----12~-------------------------------------------------------------------|
D|--------------------------------------------------------------------------|
A|--------------------------------------------------------------------------|
E|--------------------------------------------------------------------------|

| /  slide up
| \  slide down
| h  hammer-on
| p  pull-off
| ~  vibrato
| +  harmonic
| x  Mute note
| b  Bend
| r  Release Bend
=============================================================================
Tap to rate this tab
 
# A B C D E F G H I J K L M N O P Q R S T U V W X Y Z