Guitaretab - guitar tabs
Song name
# A B C D E F G H I J K L M N O P Q R S T U V W X Y Z
Home / P / Peach / Spasm tab

Peach - Spasm tab

#----------------------------------PLEASE NOTE---------------------------------#
#This file is the author's own work and represents their interpretation of the-#
#song. You may only use this file for private study, scholarship, or research.-#
#------------------------------------------------------------------------------#

Peach - Spasm
Submitted By: Elyk Lladnar
EMail: electron_degeneracy_pressure@yahoo.com


Dropped D tuning

Intro

(gtr.1) *clean w/delay
e---------
b---------
g--9------ *dive w/bar
d---------
a---------
d---------

*distortion*

(gtr.1) *sounds like random feedback

(gtr.2)
e----------------------------
b----------------------------
g----------------------------
d-7---7---7-/-10--7-/-10---7-
a-7---7---7-/-10--7-/-10---7-
d-7---7---7-/-10--7-/-10---7-


verse 1

(both guitars)        x8 (I think)
e------------------------
b------------------------
g------------------------
d-77-77-7h8-7-77-77-7h8--
a-77-77-7h8-7-77-77-7h8--
d-77-77-7h8-7-77-77-7h8--


chorus 1
					   x4
e---------------------------------------------
b---------------------------------------------
g---------------------------------------------
d-2-22-0h2-2-22-0h2-2p0-2-22-0h2-2p0-5-5-0-0--
a-2-22-0h2-2-22-0h2-2p0-2-22-0h2-2p0-5-5-0-0--
d-2-22-0h2-2-22-0h2-2p0-2-22-0h2-2p0-5-5-0-0--


verse 2

(gtr.2)			x4
e------------------------
b------------------------
g------------------------
d-77-77-7h8-7-77-77-7h8--
a-77-77-7h8-7-77-77-7h8--
d-77-77-7h8-7-77-77-7h8--
p.m.........  ..........
e----------------------------------
b----------------------------------
g----------------------------------
d----------------------------------
a----------------------------------
d-3p0-0-5p0-0-3p0-0-5-6-7-6-5-3p0--

(gtr.1) *w/tremolo pedal* x3
e------------------------
b------------------------
g------------------------ *after last time just hold and let
d-7----------------------  feedback
a------------------------
d------------------------

(gtr.2)      	     x4
e------------------------
b------------------------
g------------------------
d-77-77-7h8-7-77-77-7h8--
a-77-77-7h8-7-77-77-7h8--
d-77-77-7h8-7-77-77-7h8--


chorus 2

 					    x4
e---------------------------------------------
b---------------------------------------------
g---------------------------------------------
d-2-22-0h2-2-22-0h2-2p0-2-22-0h2-2p0-5-5-0-0--
a-2-22-0h2-2-22-0h2-2p0-2-22-0h2-2p0-5-5-0-0--
d-2-22-0h2-2-22-0h2-2p0-2-22-0h2-2p0-5-5-0-0--


interlude
[ Tab from: http://www.guitaretab.com/p/peach/122031.html ]
(gtr.1)*w/delay*
e------------------------------------
b------------------------------------
g------------------------------------
d-14~~~~~~~~~~~~~-------------------- *hold and feedback for four bars
a------------------------------------
d------------------------------------

(gtr.2)   		          x4
e------------------------------------
b------------------------------------
g-15---15---15---15~~15---15---15---- *gtr.2 quits after four bars
d---14---14---14-------14---14---14--
a------------------------------------
d------------------------------------

(gtr.1)*w/delay*
e------------------------------------
b------------------------------------
g------------------------------------ *do this for a bit
d-19~~~~~~~~~~~~~~~------------------
a------------------------------------
d------------------------------------

(gtr.2)                              x4
e--------------------------------------
b--------------------------------------
g--------------------------------------
d--------------------------------------
a-7-6-0-3-0-5-3-0-3-0-7-6-0-3-0-5-3-0--
d--------------------------------------
p.m...................................

(both guitars)   x4
e------------------
b------------------
g------------------
d------------------
a-7-6-0-3-0-5-3-0--
d------------------

     				 x4
e----------------------------------
b----------------------------------
g----------------------------------
d----------------------------------
a----------------------------------
d-3p0-0-5p0-0-3p0-0-5-6-7-6-5-3p0--


ending

(both guitars) This should be right. I'm unsure about the slides 
						 x4
e--------------------------------------------------
b--------------------------------------------------
g--------------------------------------------------
d-7-77-5h7-7--77-5h7--77-5h7--77-5h7-7/10-5h7-7/9--
a-7-77-5h7-7--77-5h7--77-5h7--77-5h7-7/10-5h7-7/9--
d-7-77-5h7-7--77-5h7--77-5h7--77-5h7-7/10-5h7-7/9--

e-----------------------------------------------------------------------
b-----------------------------------------------------------------------
g-----------------------------------------------------------------------
d--7---7-/-10--7-/-10--7--10-9-7-------------7--10-9-7-------------0----
a--7---7-/-10--7-/-10--7--10-9-7-------------7--10-9-7-------------0----
d--7---7-/-10--7-/-10--7--10-9-7-7-7-8p7-8p7-7--10-9-7-7-7-8p7-8p7-0----

*while letting D chord fade out, manipulate
  toggle switch between full off/full on
(you should have your rhythm pickup at 0)

*gtr.1 starts up after the open D chord is hit, strikes the 14th fret of
the G string, and just bends it and releases it while letting it feed
back
Related for Spasm tab