Song name
# A B C D E F G H I J K L M N O P Q R S T U V W X Y Z

Pearl Jam - Long Road tab

I did a tab of this a while ago and did a little mistake in the little 
add-in bit to the verse and chorus and outro, now its fixed 
and sounds right(hopefully it adds on a star hehe). sorry for any inconvenience

THIS IS JUST A TAB OF WHAT EDDIE PLAYS ON THE 2000 TOUR VIDEO. 
THE OTHERS LOOK SHIT SO THIS ONE SHOULD BE CORRECT. WHEN I PLAY 
IT ON MY GUITAR IT SOUNDS REALLY GOOD. THIS IS A GREAT SONG TO 
PLAY ON GUITAR AND SING WITH ASWELL.


INTRO:

-----2-----------------------
-----3-----------------------
-----2-----------------------
-------0-0-0-0-0-0-0-0-0-0-0-
-----------------------------
-----------------------------  x14

EDDIE STARTS SINGING THE 5TH TIME.
BUILD UP STRUMMING ON 14TH TIME 
 
VERSE AND CHORUS:

--3--3-3--3-3--3-3--3-3-3---3--3-3--3-3--3-3--3-3-3--
--3--3-3--3-3--3-3--3-3-3---3--3-3--3-3--3-3--3-3-3--
--0--0-0--0-0--0-0--0-0-0---0--0-0--0-0--0-0--0-0-0--
--0--0-0--0-0--0-0--0-0-0---2--2-2--2-2--2-2--2-2-2--
--2--2-2--2-2--2-2--2-2-2---3--3-3--3-3--3-3--3-3-3--
--3--3-3--3-3--3-3--3-3-3----------------------------
"holdin hands are           "and their faith are fallin"
 daughters and sons"         

--2--2-2--2-2--2-2--3p2-2--0-0h2-------
--3--3-3--3-3--3-3----------------3----
--2--2-2--2-2--2-2------------------2--
---------------------------------------
---------------------------------------
---------------------------------------
"down down down"


AFTER THAT DO THE SAME AS INTRO.

THEN BACK INTO THE VERSE AND CHORUS.


OUTRO PART:

-2-  JUST STRUM REALLY SOFT       -3p2-2--0-0h2-----
-3-  UP AND DOWN AND JUST ADD IN  --------------3---
-2-                               ----------------2-
---                               ------------------
---                               ------------------
---                               ------------------
                                  
"we all walk the long road"


WELL THATS IT. IF YOU DON'T REALLY UNDERSTAND WATCH 
THE VIDEO ITS THE FIRST SONG AND YOU SHOULD UNDERSTAND
IT THEN. 

THANKS. SEAN DEDRICK

any suggestions or comments: alive10@hotmail.com 
 

 

Tap to rate this tab
# A B C D E F G H I J K L M N O P Q R S T U V W X Y Z