Song name
# A B C D E F G H I J K L M N O P Q R S T U V W X Y Z

Pearl Jam - Sirens tab

-------------------------------------------------------------------------------
                             SIRENS - PEARL JAM
-------------------------------------------------------------------------------
Tabbed by: firebowl99
E-mail:

Tuning: Standard

e|---------------------------------------------------------------------------|
B|---------------------------------------------------------------------------|
G|--10h12---10---------------------------------------------------------------|
D|-------------12p10------12p10------/10-------------------------------------|
A|-------------------13---------13-------------------------------------------|
E|---------------------------------------------------------------------------|

e|-------------------15------------------------------------------------------|
B|--18b--------18-15----15---------------------------------------------------|
G|---------------------------17p15h17----------------------------------------|
D|---------------------------------------------------------------------------|
A|---------------------------------------------------------------------------|
E|---------------------------------------------------------------------------|

e|-----18-20-20b----18-20-20b----18-20-20b----18-20-20b--13------------------|
B|--20-----------20-----------20-----------20---------------15-13------------|
G|----------------------------------------------------------------15---------|
D|---------------------------------------------------------------------------|
A|---------------------------------------------------------------------------|
E|---------------------------------------------------------------------------|

e|---------------------------------------------------------------------------|
B|------------------------------------10--11--10--11--10--11--10-------------|
G|-15---14-15--12-------12-12-12-12-10--10--10--10--10--10--10--10-----------|
D|---------------------------------------------------------------------------|
A|---------------------------------------------------------------------------|
E|---------------------------------------------------------------------------|

e|---------------------------------------------------------------------------|
B|-11p10--11p10--------------------------------------------------------------|
G|------10-----10------------------------------------------------------------|
D|---------------------------------------------------------------------------|
A|---------------------------------------------------------------------------|
E|---------------------------------------------------------------------------|



************************************

| /   slide up
| \   slide down
| h   hammer-on
| p   pull-off
| ~   vibrato
| +   harmonic
| x   Mute note
| b   Bend
| pb  Pre-bend
| br  Bend release
| pbr Pre-bend release
| brb Bend release bend

************************************
Tap to rate this tab
 
# A B C D E F G H I J K L M N O P Q R S T U V W X Y Z