Song name
# A B C D E F G H I J K L M N O P Q R S T U V W X Y Z

Pedro The Lion - Options tab

Intro
---------------------------------------------------------------|
---------------------------------------------------------------|
---------------------------------------------------------------|
----0-------0-------0------9-------0-------0------0----0-------|
--9-------7-------12-----12-10---9-------7------10---10---10---|
7-----7-5-----5/10---10-0------7-----7-5-----5/8----8----8-----|


---------------------------------------------------------------|
---------------------------------------------------------------|
---------------------------------------------------------------|
----0-------0-------0------9/5-----0-------0-------0----0------|
--9-------7-------12-----12------9-------7-------5----5----5---|
7-----7-5-----5/10---10-0------7-----7-5-----5/3----3----3-----|


----------------|
----------------|
----------------|
----0-------0---|
--9-------7-----|
7-----7-5-----5-|

Verse
------------------------------------|
------------------------------------|
------------------------------------|
----4-----4-----------9-----9-------|
--5-----5-----5-----10----10----10--|
5-----5-----5-----10----10----10----|
\"We were walking...\"


------------------------------------|
------------------------------------|
------------------------------------|
--4---4---4---4---2-----2-0---0-----|
2---2---0---0-----------------------|
----------------3-----3-----3-------|
1 + 2 + 1 + 2 + 1 + 2 + 1 + 2 +
                    ^notice the rest here
\"I could never divorce you...\"


1 + 2 + 1 + 2 + 1 + 2 + 1 + 2 +
---------------------------------|
---------------------------------|
---------------------------------|
--4---4---2-0---------0---0---0--|
2---2---0-----4---2--------------|
----------------3---3---3---3----|
\"without a good reason\"


Verse 2
D            G          D
Cause it was only in my head
        G           D
Because no one ever says
          G              D
What they really mean to say
     G
When theres so much at stake
                       (on \'stake\' start \"I could never divorce\" you part)
Tap to rate this tab
# A B C D E F G H I J K L M N O P Q R S T U V W X Y Z