Song name
# A B C D E F G H I J K L M N O P Q R S T U V W X Y Z

Pedro The Lion - Second Best tab

-------------------------------------------------------------------------------
			     Second Best - Pedro the Lion
-------------------------------------------------------------------------------
Tabbed by:redwoodsg

| /  slide up
| \  slide down
| h  hammer-on
| p  pull-off
| ~  vibrato
| +  harmonic
| x  Mute note



Standard tuning


Intro (x2)
e-----------------------------------------------------|
b-----------------------------------------------------|
g-----------------------------------------------------|
d-------3~-----7~---------3~-----5~-----3~------------|
a-----5~---------8~-----5~-------5~-----3~------------|
e---5~-------8~-------6~---------3~-----1~------------|

Verse (clean x4)
e-----------------------------------------------------|
b-----------------------------------------------------|
g-----------------------------------------------------|
d-------3~-----7~---------3~-----5~-----3~------------|
a-----5~---------8~-----5~-------5~-----3~------------|
e---5~-------8~-------6~---------3~-----1~------------|

Chorus (x1)
e-----------------------------------------------------|
b-----------------------------------------------------|
g-----------------------------------------------------|
d---8----10---8---7----8---10---8---8---8---10---3----|
a---8----10---8---7----8---10---8---8---8---10---5----|
e---6----8----6---5----6---8----6---7---6---8----5----|

Verse  (x2)
e-----------------------------------------------------|
b-----------------------------------------------------|
g-----------------------------------------------------|
d-------3~-----7~---------3~-----5~-----3~------------|
a-----5~---------8~-----5~-------5~-----3~------------|
e---5~-------8~-------6~---------3~-----1~------------|

Bridge
(x2)
e-----------------------------------------------------|
b-----------------------------------------------------|
g---7-----14----10------------------------------------|
d---x-----x-----x------5------------------------------|
a---5-----12----8------5------------------------------|
e----------------------3------------------------------|

(x1)
e-----------------------------------------------------|
b-----------------------------------------------------|
g-----------------------------------------------------|
d---8---10---10---12---10---8---8---8---7-------------|
a---8---10---10---12---10---8---8---8---7-------------|
e---6---8----9----10---8----6---7---6---5-------------|

Chorus (x1)
e-----------------------------------------------------|
b-----------------------------------------------------|
g-----------------------------------------------------|
d---8----10---8---7----8---10---8---8---8---10--------|
a---8----10---8---7----8---10---8---8---8---10--------|
e---6----8----6---5----6---8----6---7---6---8---------|


Outro
 (x4)
e-------------------------------------------------------------------|
b-------------------------------------------------------------------|
g-----------7-7-------------------------9-9-9-9-1010101012----------|
d-33333--55-7-7-10101010101010--12121212101010101010101010---555----|
a-55555--55-5-5-8-8-8-8-8-8-8---8-8-8-8-8-8-8-8-8-8-8-8-8----555----|
e-55555--33--------------------------------------------------333----|


last time play
e---------|
b---------|
g---------|
d---3~----|
a---5~----|
e---5~----|


-
Tap to rate this tab
# A B C D E F G H I J K L M N O P Q R S T U V W X Y Z