Song name
# A B C D E F G H I J K L M N O P Q R S T U V W X Y Z

Pedro The Lion - Arizona tab

ARIZONA - Pedro The Lion



Capo 3



Intro:



e|---------0--------|------------------|---------0--------|-1---0------------|
B|-----1-------1----|-3---1-----1------|-----1-------1----|---------3-1------|
G|-0h2---2----------|---------2-----0--|---2---2----------|---------------0--|
D|------------------|------------------|------------------|------------------|
A|------------------|------------------|------------------|------------------|
E|------------------|------------------|------------------|------------------|



e|---------0--------|-3---1---0--------|
B|-----1-------1----|-----------3--1---|
G|-2-----2----------|------------------|
D|------------------|------------------|
A|------------------|------------------|
E|------------------|------------------|



Intro chords (guitar 2):

F5  Bb5  F5  Bb5  F  Bb5



Verse:



Am G           C            F

arizona curled up with california

Am                G                    Dm           G

then she tried to hide the whole thing from new mexico

Am         G                C             F

who knew before he saw them making out in yuma

Fm                C              G (G6)

that she had been loving someone new

        F5             D5               E7

but california not california how could you



Bridge:

F  Fm  C  Am  F  Fm  C

 F  Fm  Am  A7  Dm  Fm  C



Synth part played over chords:



e|-----------------------|-------------------------|----------------------|
B|-------0---2-4---2-0---|-------1---2-4-------2-0-|-------0---2-5---4-1--|
G|-1---3-----------------|-1---3-------------------|-1---3----------------|
D|-----------------------|-------------------------|----------------------|
A|-----------------------|-------------------------|----------------------|
E|-----------------------|-------------------------|----------------------|



e|-----------------------|---------------|
B|-4-2---0-----4-2---0---|---------------|
G|---------1-----------0-|-----0---------|
D|-----------------------|--------4------|
A|-----------------------|---------------|
E|-----------------------|---------------|



Bb

the bully loved her cactus

Am

the underdog her pine

Dm                      G        E7

but she would only love one at a time

Am      G             C          F

new mexico has always hated california

Am            G            Dm            G (G6)

and though he knew that arizona wore the pants

Am       G             C                F

he got loaded then he started throwing punches

Fm       C     G     E7    F     G

the poor injun never had a chance

C            E7    Am

scissors cut paper

F     C      G (G6)

paper covers rock

C            E7   Am

rock crushes scissors

F        G     F   Fm   C

scissors fall apart
Tap to rate this tab
# A B C D E F G H I J K L M N O P Q R S T U V W X Y Z