Song name
# A B C D E F G H I J K L M N O P Q R S T U V W X Y Z

Pee Wee Gaskins - On A Day Just Like This tab

D-|----------------------------------------------------------|
A-|---7--7-7--7-5--0-0-0-0-0---7--7-7--7-5--0-0-0-0-0--------|
A-|---0--0-0--0-0--0-0-0-0-0---0--0-0--0-0--0-0-0-0-0--------|
D-|---0--0-0--0-0--0-0-0-0-0---0--0-0--0-0--0-0-0-0-0--------|
A-|---5--5-5--5-5--5-5-5-5-5---4--4-4--4-4--4-4-4-4-4--------|
D-|----------------------------------------------------------|

D-|----------------------------------------------------------|
A-|---5--5-5--5-3--0-0-0-0-0---4--4-4--4-5--2-2-2-2-2--------|
A-|---0--0-0--0-0--0-0-0-0-0---4--4-4--4-5--2-2-2-2-2--------|
D-|---0--0-0--0-0--0-0-0-0-0---0--0-0--0-0--0-0-0-0-0--------|
A-|---2--2-2--2-2--2-2-2-2-2---0--0-0--0-0--0-0-0-0-0--------|
D-|----------------------------------------------------------|

Tap to rate this tab
 
# A B C D E F G H I J K L M N O P Q R S T U V W X Y Z