Song name
# A B C D E F G H I J K L M N O P Q R S T U V W X Y Z

Pepper - Fkarnd tab

-------------------------------------------------------------------------------
                             Fkarnd - Pepper
-------------------------------------------------------------------------------
Tabbed by: Smashedpootato
E-mail: nacyjody@hotmail.com

Tuning:Standard

I didn't finish the solo or bridge
  
Verse

e|-------------------------------------------2-----|---------4-4h5-----------|
B|--------------5---4--------------------5-----5p4-|---4/5p0----------5\4----|
G|---------4------------------------4--------------|-------------------------|
D|-----2h4----4---4-------------2h4----4---4-------|-------------------------|
A|---2------------------------2--------------------|-------------------------|
E|-------------------------------------------------|-------------------------|

Pre-Chorus
e|---------7\------------77\----------------7\---------------------------------|
B|---------7\------------77\----------------7\---------------------------------|
G|---------8\------------88\----------------8\---------------------------------|
D|---pm9999---99-99--9999-----99-99---7777----7777-----------------------------|
A|---pm9999---99-99--9999-----99-99---7777----7777-----------------------------|
E|---pm7777---77-77--7777-----77-77---5555----5555-----------------------------|

Chorus
e|-----------------|-----/77777----------------------------------------------|
B|-----------------|---0-/77777----------------------------------------------|
G|-----------------|---4-/88888----------------------------------------------|
D|---9--9--9--7----|---------------------------------------------------------|
A|---9--9--9--7----|---------------------------------------------------------|
E|---7--7--7--5----|---------------------------------------------------------|

Tap to rate this tab
# A B C D E F G H I J K L M N O P Q R S T U V W X Y Z