Song name
# A B C D E F G H I J K L M N O P Q R S T U V W X Y Z

Per-olov Kindgren - Yesterday tab

#----------------------------------PLEASE NOTE---------------------------------#
#This file is the author's own work and represents their interpretation of the #
#song. You may only use this file for private study, scholarship, or research. #
#------------------------------------------------------------------------------##

Date:  19.09.2010
Tabbed by Peter Tuyp(peter.tuyp@wxs.nl)

Subject:
Beatles - Yesterday
Performed by Per Olov Kindgren
http://www.youtube.com/watch?v=4BL7fLeXMhM&feature=related


G	320003
Fm#7	244222
B7	224242
Em	o22000
Em7	020030
C	032010
D7	000212
D	200232
A	202220
B7 	x21202

^	appregio



  G
|----------------------------------------|
|-----0-----------0-----0-----------0----|
|-----0-0-------0-------0-0-------0------|
|---0---------0-------0---------0--------|
|----------------------------------------|
|-3-------3-3-------3-------3-3----------|


   G                   Fm#7    B7      Em          Em7 C
|--------------------------------0-2-3-2---0-0----------------|
|--------------------0-----0-2-4------------------------------|
|-----^2-0-0-------0-----2---------------0-------0---0---0----|
|----------------0-----------------------------2---0----------|
|------------------------------2-----------------------3------|
|--^3--------3-3-------2---------------0----------------------|

      D7       G              D   Em7 A   C G 
|-0-0----------------------------------------------|
|-----3-1-0------^1---0-0-0---------0-------0-0----|
|-----------2-------0-0-0-----2---0-0-2---0--------|
|-----0-------------------------0-------2----------|
|---------------------------2-------------3--------|
|-------------^3----------3---2---0---2-----3-3----|

  G              Fm#7    B7      Em          Em7 C
|--------------------------0-2-3-2---0-0----------------|
|--------------0-----0-2-4------------------------------|
|-2-0--------0-----2---------------0-------0---0---0----|
|----------0-----------------------------2---0----------|
|------------------------2-----------------------3------|
|-3----3-3-------2---------------0----------------------|

      D7           G              D   Em7 A   C G
|-0-0--------------------------------------------------|
|-----3-1h3p1p0------^1---0-0-----------0-------0-0----|
|---------------2-------0-0-0-0---2---0-0-2---0--------|
|-----0-----------------------------0-------2----------|
|-------------------------------2-------------3--------|
|-----------------^3----------3---2---0---2-----3-3----|

  B7              Em  D   C       D7              G 
|-----------------0---2---3---2-0-2-----0-----0----------------------|
|-0-------0---------0---0-------------1---3-------0-------------0----|
|---2---2---2---2-----------0-----2---------2---2---0---------0------|
|-----1-------1---2---0-------------0-----------------0-----0--------|
|---------2---------------3------------------------------------------|
|-2-----------------------------------------------3-----3-3----------|

  B7              Em  D   C       D7              G
|-----------------0---2---3---2-0-2-----0-----2---^3------------------|
|-0---0---0---0-----0---0-------------1---3-------^0---3---1---0------|
|---2---2---2---2-----------0-----2---------2---2-^0-0---0---0---0----|
|-----1-------1---2---0-------------0-------------^0------------------|
|---------2---------------3-----------------------^2------------------|
|-2-----------------------------------------------^3------------------|

   G               Fm#7    B7      Em          Em7 C
|----------------------------0-2-3-2---0-0----------------|
|----------------0-----0-2-4------------------------------|
|--2-0-0-------0-----2---------------0-------0---0---0----|
|------------0-------------2---------------2---0----------|
|--------------------------------------------------3------|
|--3-----3-3-------2---------------0----------------------|

      D7      G           D   Em7 A   C G
|-0-0------------------------------------------|
|-----3-1-0---1---3-0-----------0-------0-0----|
|-----------2---0-0-0-0---2---0-0-2---0--------|
|-----0-------------0-------0-------2----------|
|-----------------------2-------------3--------|
|-------------3-------3---2---0---2-----3-3----|

  G       A   C G
|----------------------|
|-----0---------0-0----|
|-0---0---2---0--------|
|---4-2-0-2-2----------|
|-------------3--------|
|---------------3-3----|

Tap to rate this tab
 
# A B C D E F G H I J K L M N O P Q R S T U V W X Y Z