Song name
# A B C D E F G H I J K L M N O P Q R S T U V W X Y Z

Periphery - Letter Experiment tab

Periphery
Letter Experiment tapping solo 1:57-2:23

eb---------------------------------------------------------------------------------------------|
Bb--------11-7-----------12-7-----------14-7-----------12-7-----------11-7---------------------|
Gb-12-7-9------9--12-7-9------9--12-7-9------9--12-7-9------9--12-7-9------9--12-9-------------|
Db---------------------------------------------------------------------------------------------|
ab---------------------------------------------------------------------------------------------|
Eb---------------------------------------------------------------------------------------------|
Ab---------------------------------------------------------------------------------------------|
   1  2 3  4 5 6  1  2 3  4 5 6  1  2 3  4 5 6  1  2 3  4 5 6  1  2 3  4 5 6  7  8
eb---------------------------------------------------------------------------------------------|
Bb---------------------------------------------------------------------------------------------|
Gb--11-7-----------12-7-----------14-7-----------12-7-----------11-7---------------------------|
Db-------9-12-7-9-------9-12-7-9-------9-12-7-9-------9-12-7-9-------9-12-7-9-7-lr--(let-ring)-|
ab---------------------------------------------------------------------------------------------|
Eb---------------------------------------------------------------------------------------------|
Ab---------------------------------------------------------------------------------------------|
    1  2 3  4 5 6  1  2 3  4 5 6  1  2 3  4 5 6  1  2 3  4 5 6  1  2 3  4 5 6 7 8
eb---------------------------------------------------------------------------------------------|
Bb--------11-7-----------12-7-----------14-7-----------12-7-----------11-7---------------------|
Gb-12-7-9------9--12-7-9------9--12-7-9------9--12-7-9------9--12-7-9------9--12-9-------------|
Db---------------------------------------------------------------------------------------------|
ab---------------------------------------------------------------------------------------------|
Eb---------------------------------------------------------------------------------------------|
Ab---------------------------------------------------------------------------------------------|
   1  2 3  4 5 6  1  2 3  4 5 6  1  2 3  4 5 6  1  2 3  4 5 6  1  2 3  4 5 6  7  8

eb---------------------------------------------------------------------------------------------|
Bb--------------------------14-9-10---------------------------14-9-10---------15-10-12---------|
Gb---------14-9------------------------------14-9---------------------14-9-11----------14-9----|
Db-14-9-11------11--14-9-11----------14-9-11------11--14-9-11----------------------------------|
ab---------------------------------------------------------------------------------------------|
Eb---------------------------------------------------------------------------------------------|
Ab---------------------------------------------------------------------------------------------|
   1  2 3  4  5 6   1  2 3  4  5 6   1  2 3  4  5 6   1  2 3  4  5 6  1  2 3  4  5  6  7 
8
2X

This is a 6/8 and it's not very easy to stay in rhythm. Especially the second row, which 
where it "starts". That's why I put in the numbers... It's pretty obvious where to tap. 
luck!
For further questions, feel free to ask me here on ultimate-guitar, YouTube, Myspace, 
SoundClick or wherever. I'm NoaOno on all of them.
Tap to rate this tab
 
# A B C D E F G H I J K L M N O P Q R S T U V W X Y Z