Song name
# A B C D E F G H I J K L M N O P Q R S T U V W X Y Z

Perkele - A Song For You tab

Tabbed by: Jonathan Ring
Band:Perkele
Song: A Song For You

                     INTRO

-------------------------------------------------------|
-------------------------------------------------------|
-6-6--x-x-x-x--4-4-x-x-x-x--6-6-x-x-x-x---6-6-x-x-x-x--|
-6-6--x-x-x-x--4-4-x-x-x-x--4-4-x-x-x-x---6-6-x-x-x-x--|
-4-4--x-x-x-x--2-2-x-x-x-x----------------4-4-x-x-x-x--|
-------------------------------------------------------|

                       CHORUS
----------------------------------------------------------------------|
----------------------------------------------------------------------|
----------------10-10-10-10-10-10-------------------------------------|
-8-8-8-8-8-8----10-10-10-10-10-10---10-10-10-10-10-10---6-6-6-6-6-6---|
-8-8-8-8-8-8----8--8--8--8--8--8----10-10-10-10-10-10---6-6-6-6-6-6---|
-5-5-5-5-5-5------------------------8--8--8--8--8--8----4-4-4-4-4-4---|
Tap to rate this tab
 
# A B C D E F G H I J K L M N O P Q R S T U V W X Y Z