Perkele - Weekend tab

Perkele - Weekend


#----------------------------------PLEASE NOTE---------------------------------#
#This file is the author's own work and represents their interpretation of the #
#song. You may only use this file for private study, scholarship, or research. #
#------------------------------------------------------------------------------#


	
Gtr I (E A D G B E) - 'Rythm'
Gtr II (E A D G B E) - 'Lead'

Gtr I & II:

  Q=160
 4/4
  
Intro:

Gtr I
  Q.   Q.   Q     E H    Q.     E H    Q.     E Q.   H      Q.   Q.   Q
|--------------|--------------|-------------|-------------|----------------|
|--------------|--------------|-------------|-------------|----------------|
|-9----8-------|--------------|-9-----------|-------------|-9----8---------|
|-9----8----9--|-11-----------|-9-----------|-7-----------|-9----8----9----|
|-7----6----9--|-11-----------|-7-----------|-7-----------|-7----6----9----|
|-----------7--|--9-----------|-------------|-5-----------|-----------7----|

Bridge 1:

   PM------------------------------------------------
   E  E  E  E  E  E  E  E    E  E  E  E  E  E  E  E
|-------------------------|-------------------------|
|-------------------------|-------------------------|
|-------------------------|-16-16-16-16-16-16-16-16-|
|-18-18-18-18-18-18-18-18-|-14-14-14-14-14-14-14-14-|
|-16-16-16-16-16-16-16-16-|-------------------------|
|-------------------------|-------------------------|
|
| Gtr II
|  q     Q     q     q       q     Q     q     q
|--9----------12----11----|-12----------16----14----|
|--9----------12----11----|-12----------16----14----|
|-------------------------|-------------------------|
|-------------------------|-------------------------|
|-------------------------|-------------------------|
|-------------------------|-------------------------|


 ------------------------------------------------|
   E  E  E  E  E  E  E  E    E  E  E  E  E  E  E  E
|-------------------------|---------------------------|
|-------------------------|---------------------------|
|-------------------------|---------------------------|
|-14-14-14-14-14-14-14-14-|-16-16-16-16-16-16-16-16---|
|-12-12-12-12-12-12-12-12-|-14-14-14-14-14-14-14-14---|
|-------------------------|---------------------------|
|
|  q     Q     q     q       q     Q     q     q
|--5-----------7-----9----|--7-----------9----11------|
|--5-----------7-----9----|--7-----------9----11------|
|-------------------------|---------------------------|
|-------------------------|---------------------------|
|-------------------------|---------------------------|
|-------------------------|---------------------------|


   PM------------------------------------------------
   E  E  E  E  E  E  E  E    E  E  E  E  E  E  E  E
|-------------------------|-------------------------|
|-------------------------|-------------------------|
|-------------------------|-16-16-16-16-16-16-16-16-|
|-18-18-18-18-18-18-18-18-|-14-14-14-14-14-14-14-14-|
|-16-16-16-16-16-16-16-16-|-------------------------|
|-------------------------|-------------------------|
|
| Gtr II
|  q     Q     q     q       q     Q     q     q
|--9----------12----11----|-12----------16----14----|
|--9----------12----11----|-12----------16----14----|
|-------------------------|-------------------------|
|-------------------------|-------------------------|
|-------------------------|-------------------------|
|-------------------------|-------------------------|


 ------------------------------------------------|
   E  E  E  E  E  E  E  E    E  E  E  E  E  E  E  E
|-------------------------|-------------------------|
|-------------------------|-------------------------|
|-------------------------|-------------------------|
|-14-14-14-14-14-14-14-14-|-16-16-16-16-16-16-16-16-|
|-12-12-12-12-12-12-12-12-|-14-14-14-14-14-14-14-14-|
|-------------------------|-------------------------|
|
|  q     Q     q     q       e  E  E  E  E  E  E  E
|--5-----------7-----9----|--7--7--7--7--7--7--7--7-|
|--5-----------7-----9----|--7--7--7--7--7--7--7--7-|
|-------------------------|-------------------------|
|-------------------------|-------------------------|
|-------------------------|-------------------------|
|-------------------------|-------------------------|

Bridge 2:

    E E E E E E E E   E Q.   E Q.     E E E E E E E E   E Q. E Q.
||------------------|--------4-0----|-----------------|---------------||
||o-----------------|---------------|-----------------|------4-0-----o||
||--6-x-x-6-x-x-6-x-|-9-------------|-----------------|---------------||
||--6-x-x-6-x-x-6-x-|-9-------------|-7-x-x-7-x-x-7-x-|-9-------------||
||o-4-x-x-4-x-x-4-x-|-7-------------|-7-x-x-7-x-x-7-x-|-9------------o||
||------------------|---------------|-5-x-x-5-x-x-5-x-|-7-------------||


Strophe:

    E Q  E Q  E E   E  Q  E  Q  E E   E  Q E Q E E   E Q E Q E E  4x
||----------------|-----------------|--------------|--------------||
||o---------------|-----------------|--------------|-------------o||
||--6----6----6---|-9-----9-----9---|--------------|--------------||
||--6----6----6---|-9-----9-----9---|-7----7---7---|-9---9---9----||
||o-4----4----4---|-7-----7-----7---|-7----7---7---|-9---9---9---o||
||----------------|-----------------|-5----5---5---|-7---7---7----||


Refrain:

    Q  Q  E E E E   Q  Q  E E E E   Q  Q  E E E E   Q  Q  E E E E
||----------------|---------------|---------------|--------------|
||o---------------|---------------|---------------|--------------|
||--9--9--9-9-9-9-|---------------|-6--6--6-6-6-6-|--------------|
||--9--9--9-9-9-9-|-9--9--9-9-9-9-|-6--6--6-6-6-6-|-7--7--7-7-7-7|
||o-7--7--7-7-7-7-|-9--9--9-9-9-9-|-4--4--4-4-4-4-|-7--7--7-7-7-7|
||----------------|-7--7--7-7-7-7-|---------------|-5--5--5-5-5-5|


  Q  Q  E E E E   Q  Q  E E E E   Q  Q  E E E E   Q  Q  E E E E
|---------------|---------------|---------------|----------------||
|---------------|---------------|---------------|---------------o||
|-9--9--9-9-9-9-|---------------|---------------|----------------||
|-9--9--9-9-9-9-|-9--9--9-9-9-9-|-7--7--7-7-7-7-|-7--7--7-7-7-7--||
|-7--7--7-7-7-7-|-9--9--9-9-9-9-|-7--7--7-7-7-7-|-7--7--7-7-7-7-o||
|---------------|-7--7--7-7-7-7-|-5--5--5-5-5-5-|-5--5--5-5-5-5--||


Bass only:

  Wx4
|--------|
|--------|
|--------|
|--------|
|--------|
|--------|


Bridge 1:

   PM------------------------------------------------
   E  E  E  E  E  E  E  E    E  E  E  E  E  E  E  E
|-------------------------|-------------------------|
|-------------------------|-------------------------|
|-------------------------|-16-16-16-16-16-16-16-16-|
|-18-18-18-18-18-18-18-18-|-14-14-14-14-14-14-14-14-|
|-16-16-16-16-16-16-16-16-|-------------------------|
|-------------------------|-------------------------|
|
| Gtr II
|  q     Q     q     q       q     Q     q     q
|--9----------12----11----|-12----------16----14----|
|--9----------12----11----|-12----------16----14----|
|-------------------------|-------------------------|
|-------------------------|-------------------------|
|-------------------------|-------------------------|
|-------------------------|-------------------------|


 ------------------------------------------------|
   E  E  E  E  E  E  E  E    E  E  E  E  E  E  E  E
|-------------------------|---------------------------|
|-------------------------|---------------------------|
|-------------------------|---------------------------|
|-14-14-14-14-14-14-14-14-|-16-16-16-16-16-16-16-16---|
|-12-12-12-12-12-12-12-12-|-14-14-14-14-14-14-14-14---|
|-------------------------|---------------------------|
|
|  q     Q     q     q       q     Q     q     q
|--5-----------7-----9----|--7-----------9----11------|
|--5-----------7-----9----|--7-----------9----11------|
|-------------------------|---------------------------|
|-------------------------|---------------------------|
|-------------------------|---------------------------|
|-------------------------|---------------------------|


   PM------------------------------------------------
   E  E  E  E  E  E  E  E    E  E  E  E  E  E  E  E
|-------------------------|-------------------------|
|-------------------------|-------------------------|
|-------------------------|-16-16-16-16-16-16-16-16-|
|-18-18-18-18-18-18-18-18-|-14-14-14-14-14-14-14-14-|
|-16-16-16-16-16-16-16-16-|-------------------------|
|-------------------------|-------------------------|
|
| Gtr II
|  q     Q     q     q       q     Q     q     q
|--9----------12----11----|-12----------16----14----|
|--9----------12----11----|-12----------16----14----|
|-------------------------|-------------------------|
|-------------------------|-------------------------|
|-------------------------|-------------------------|
|-------------------------|-------------------------|


 ------------------------------------------------|
   E  E  E  E  E  E  E  E    E  E  E  E  E  E  E  E
|-------------------------|-------------------------|
|-------------------------|-------------------------|
|-------------------------|-------------------------|
|-14-14-14-14-14-14-14-14-|-16-16-16-16-16-16-16-16-|
|-12-12-12-12-12-12-12-12-|-14-14-14-14-14-14-14-14-|
|-------------------------|-------------------------|
|
|  q     Q     q     q       e  E  E  E  E  E  E  E
|--5-----------7-----9----|--7--7--7--7--7--7--7--7-|
|--5-----------7-----9----|--7--7--7--7--7--7--7--7-|
|-------------------------|-------------------------|
|-------------------------|-------------------------|
|-------------------------|-------------------------|
|-------------------------|-------------------------|

Solo part:


    E E E E E E E E   E E E E E E E E   E E E E E E E E   E E E E E E E E 4x
||------------------|-----------------|-----------------|-----------------||
||o-----------------|-----------------|-----------------|----------------o||
||--6-x-x-x-x-x-x-x-|-9-x-x-x-x-x-x-x-|-----------------|-----------------||
||--6-x-x-x-x-x-x-x-|-9-x-x-x-x-x-x-x-|-7-x-x-x-x-x-x-x-|-9-x-x-x-x-x-x-x-||
||o-4-x-x-x-x-x-x-x-|-7-x-x-x-x-x-x-x-|-7-x-x-x-x-x-x-x-|-9-x-x-x-x-x-x-xo||
||------------------|-----------------|-5-x-x-x-x-x-x-x-|-7-x-x-x-x-x-x-x-||
|
|     Gtr II  ( Solo unknown so far)
|                                                                         4x
||------------------|-----------------|-----------------|-----------------||
||o-----------------|-----------------|-----------------|----------------o||
||------------------|-----------------|-----------------|-----------------||
||------------------|-----------------|-----------------|-----------------||
||o-----------------|-----------------|-----------------|----------------o||
||------------------|-----------------|-----------------|-----------------||


now again: 2x Refrain, 4x Strophe, 4x Strophes and than Outro:

    E  E E E E E E E   E  E E E E E E E   E  E E E E E E E   E  E E E E E E E 3x
||-------------------|------------------|------------------|------------------||
||o------------------|------------------|------------------|-----------------o||
||--6--x-x-x-x-x-x-x-|-9--x-x-x-x-x-x-x-|------------------|------------------||
||--6--x-x-x-x-x-x-x-|-9--x-x-x-x-x-x-x-|-7--x-x-x-x-x-x-x-|-9--x-x-x-x-x-x-x-||
||o-4--x-x-x-x-x-x-x-|-7--x-x-x-x-x-x-x-|-7--x-x-x-x-x-x-x-|-9--x-x-x-x-x-x-xo||
||-------------------|------------------|-5--x-x-x-x-x-x-x-|-7--x-x-x-x-x-x-x-||
|
|   Gtr II
|   H.           E E   H.           E E   H.           E E   H.           E E 3x
||-------------------|------------------|------------------|------------------||
||o------------------|------------------|------------------|-----------------o||
||---------------6-6-|--------------9-9-|------------------|------------------||
||---------------6-6-|--------------9-9-|--------------7-7-|--------------9-9-||
||o--------------4-4-|--------------7-7-|--------------7-7-|--------------9-9o||
||-------------------|------------------|--------------5-5-|--------------7-7-||



Duration Legend
---------------
W - whole; H - half; Q - quarter; E - 8th; S - 16th; T - 32nd; X - 64th; a - acciaccatura
+ - note tied to previous; . - note dotted; .. - note double dotted
Uncapitalized letters represent notes that are staccato (1/2 duration)
Irregular groupings are notated above the duration line
Duration letters will always appear directly above the note/fret number it represents the
duration for.  Duration letters with no fret number below them represent rests.  Multi-
bar rests are notated in the form Wxn, where n is the number of bars to rest for.  Low
melody durations appear below the staff



Tap to rate this tab
 
# A B C D E F G H I J K L M N O P Q R S T U V W X Y Z