Song name
# A B C D E F G H I J K L M N O P Q R S T U V W X Y Z

Person L - Holy Hell tab

www.myspace.com/personl

INTRO x2
       X3               then
e---------------------]------------|
B---------------------]------------|
G---------------------]------------|
D-------5-----------5-]------------|
A-7-5-7---7-5---5h7---]------------|
E-------------6-------]-3-0-3-666~-|

VERSE
Guitar 1 (x2)
         X3             then
e--------------------]------------|
B--------------------]------------|
G--------------------]------------|
D-------5----------5-]------------|
A-7-5-7---7----5h7---]------------|
E------------6-------]-3-0-3-666~-|

Guitar 2 (x2)
        Plays this                        then plays with G1
e---------------------------------------]-----------|
B---------------------------------------]-----------|
G----------12b/-------------------------]-----------|
D-----------------------12b/---------9b-]-----------|
A---------------------------------------]-----------|
E-12-10-12-----12-10-12-----12-10-12----]-3-0-3-666-|

CHORUS
e-------------------------------------------------------------|
B-------------------------------------------------------------|
G-------------------------------------------------------------|
D-------------------------------------------------------------|
A-333-222-333-222---------------------333-222---------333-222-|
E-----------------555-444-----555-444---------555-444---------|

Repeat Intro,Verse and Chorus

OUTRO
Guitar 1 repeats this
X3               then
e---------------------]------------|
B---------------------]------------|
G---------------------]------------|
D-------5-----------5-]------------|
A-7-5-7---7-5---5h7---]------------|
E-------------6-------]-3-0-3-666~-|

Guitar 2 (x2)
e-----------|
B-----------|
G-----------|
D-----------|
A-----------|
E-6666-777--|

Both Guitars end on
e---
B---
G---
D---
A-7-
E---
Tap to rate this tab
# A B C D E F G H I J K L M N O P Q R S T U V W X Y Z