Song name
# A B C D E F G H I J K L M N O P Q R S T U V W X Y Z

Person L - Help Yourself tab

Help us improve GuitareTab! Take a short survey!
-----------------------------------------------
       Person L - Help Yourself (Intro)
-----------------------------------------------

e|-------------------------------------------|
B|-------------------------------------------|
G|-0------0----0----0-0-------0----0---------|
D|-----14---12-------------14---12-----------|
A|--13-----------13-----13-------------------|
E|-----------------------------------14\15---|

e|-------------------------------------------|
B|-------------------------------------------|
G|-0----0----0----0-0-------0----0-----------|
D|---14---12-------------14---12-------------|
A|-------------13-----13---------------------|
E|-----------------------------------14\15---|

e|-------------------------------------------------------------------|
B|-------------------------------------------------------------------|
G|-0----0----0----0-0-------0----0-----------------------------------|
D|---14---12-------------14---12---------1010-8-10-8-10--99-7-9-7777-|
A|-------------13-----13-----------------1010-8-10-8-10--99-7-9-7777-|
E|-----------------------------------14--8-8--8-8--8-8---77-7-7-7777-|
Related for Help Yourself tab