Song name
# A B C D E F G H I J K L M N O P Q R S T U V W X Y Z

Person L - Help Yourself tab

INTRO/VERSE (x4)
             X3                         then
e-----------------------------]----------------------|
B-----------------------------]----------------------|
G----9----------9-------------]----------------------|
D------12---------12----------]----------------------|
A-10--------10------10---9/10-]-101010101010--999999-|
E-----------------------------]-8-8-8-8-8-8---777777-|

CHORUS
x2
e------------------------------|
B------------------------------|
G------------------------------|
D---------10(x12)--------------|
A-10(x12)---------10(x8)-9(x8)-|
E------------------------------|

             X3                         then
e-----------------------------]----------------------|
B-----------------------------]----------------------|
G----9----------9-------------]----------------------|
D------12---------12----------]----------------------|
A-10--------10------10---9/10-]-101010101010--999999-|
E-----------------------------]-8-8-8-8-8-8---777777-|

Repeat Verse

CHORUS
x2
e------------------------------|
B------------------------------|
G------------------------------|
D---------10(x12)--------------|
A-10(x12)---------10(x8)-9(x8)-|
E------------------------------|

x2
             X3                         then
e-----------------------------]----------------------|
B-----------------------------]----------------------|
G----9----------9-------------]----------------------|
D------12---------12----------]----------------------|
A-10--------10------10---9/10-]-101010101010--999999-|
E-----------------------------]-8-8-8-8-8-8---777777-|

x2
e------------------------------|
B------------------------------|
G------------------------------|
D---------10(x12)--------------|
A-10(x12)---------10(x8)-9(x8)-|
E------------------------------|

x2
             X3                         then
e-----------------------------]----------------------|
B-----------------------------]----------------------|
G----9----------9-------------]----------------------|
D------12---------12----------]----------------------|
A-10--------10------10---9/10-]-101010101010--999999-|
E-----------------------------]-8-8-8-8-8-8---777777-|
Tap to rate this tab
# A B C D E F G H I J K L M N O P Q R S T U V W X Y Z