Song name
# A B C D E F G H I J K L M N O P Q R S T U V W X Y Z

Pete Murray - Class A tab

There are 4 on this song.

FIRST: Intro/Verse

e|----------------------------------------------|
b|----------------------------------------------|
g|----------------------------------------------|
d|------------------------------3---------------|
a|---3/5-5-x-0-3--0---------3/5---0-------------|
E|-------------------3-3-x----------------------|

==========================================

SECOND: Chorus

Pick this:
e|---2-----2------3-----3-----|
b|-------3---3--------3---3---|
g|----------------------------|
d|----------------------------|
a|----------------------------|
E|----------------------------|

==========================================

THIRD: Solo (the original instrument is a 'dobro')

e|--------------------------------------------|
B|--------------------------------------------|
G|--10/11-11-11—10/11-11-11-11/7/5\9/7------|
D|--------------------------------------------|
A|--------------------------------------------|
E|--------------------------------------------|

==========================================

FOURTH: Guitar with Power Chord (played after second chorus)


e|--------------------------------------------|
B|--------------------------------------------|
G|--------------------------------------------|
D|---12-12--7-10--7-5-5--14-12--s/10---------|
A|---12-12--7-10--7-5-5--14-12--s/10---------|
E|---10-10--5-8-   -5-3-3--12-10--s/8----------|


Made by JottaBR®
Tap to rate this tab
 
# A B C D E F G H I J K L M N O P Q R S T U V W X Y Z