Song name
# A B C D E F G H I J K L M N O P Q R S T U V W X Y Z

Pete Murray - Always A Winner tab

Song: Always A Winner
Artist: Pete Murray

Submitted by Jimmy Lynch

x - muted string
/ - slide up the neck
\ - slide down the neck

Intro Rhythm

G
3 5 x - - -

Bb
6 8 x  - - -

F
1 3 x  - - -

Fill
(Played when you arrive at F)

e --------------------------------------|
B --------------------------------------|
G --------------------------------------|
D --x--/--x--x--\--x--x--/--x--x--\--x--|
A --3--/--5--5--\--3--3--/--5--5--\--3--|
E --1--/--3--3--\--1--1--/--3--3--\--1--|

Verse Rhythm

e -----------------------------------------------------------|
B -----------------------------------------------------------|
G -----------------------------------------------------------|
D --x--x----x--x--x--/--x--x----x--x--x--\--x--x----x--x--x--|
A --3--5----5--5--5--/--8--8----8--8--8--\--3--3----3--3--3--|
E --3--3----3--3--3--/--6--6----6--6--6--\--1--1----1--1--1--|

Fill

e --------------------------------------|
B --------------------------------------|
G --------------------------------------|
D --x--/--x--x--\--x--x--/--x--x--\--x--|
A --3--/--5--5--\--3--3--/--5--5--\--3--|
E --1--/--3--3--\--1--1--/--3--3--\--1--|

Melody
(First appears at 0:45)

e----------------------------------|
B----------------------------------|
G----------------------------------|
D-------3--5--3--------------------|
A--3--5----------5--3--1--3--1-----|
E-------------------------------3--|

e ---------------------------------|
B ---------------------------------|
G ---------------------------------|
D -------3--5--3-------------------|
A --3--5----------5--3--1--3--1----|
E ---------------------------------|

Hope you find this helpful :)

Please email any questions or feedback to jimmy.lynch@live.com.au
Tap to rate this tab
 
# A B C D E F G H I J K L M N O P Q R S T U V W X Y Z