Song name
# A B C D E F G H I J K L M N O P Q R S T U V W X Y Z

Pete Schmidt - All Of Us tab

Help us improve GuitareTab! Take a short survey!
Pete Schmidt - All of us
From the album "No safe bet"
Tabbed by Randy Zwitch
comments@peteschmidttabs.com

Tuned down 1/2 step


(1)                              (2)              (3)
e-------------------------------|----------------|----------------------------|
b----1----1----1----1----1---0--|---1---1---1----|---1---0---1---1---1---0----|
g----0----0----2----0----0---0--|---2---0---0----|---2---4---2---0---0---0----|
d----2----x----3----2----0---0--|---3---2---0----|---2---2---3---2---0---0----|
a----3----2----3----3----2---2--|---3---3---2----|---0---x---3---3---2---2----|
E------------------------3---3--|-----------3----|-------4-----------3---3----|

(4)
e------------------------|
b-----1----1----1----0---|
g-----2----0----0----0---|
d-----3----2----0----0---|
a-----3----3----2----2---|
E---------------3----3---|
Related for All Of Us tab