Song name
# A B C D E F G H I J K L M N O P Q R S T U V W X Y Z

Peter Fox - Haus Am See tab

Help us improve GuitareTab! Take a short survey!
----------------------------------------------------------------------------
			     Haus am See - Peter Fox
----------------------------------------------------------------------------
Tabbed by: Martin Messner
Email: bigbonsai@hotmail.de

Tuning: E-standard

G|-------------------------------------------------------------------------|
D|-------1----3-------3--1----3-------3--1----3-------3--1----3------------|
A|---------------1---------------1---------------1---------------1---------|
E|-------------------------------------------------------------------------|
         |       |       |       |       |       |       |       |
         |       |       |       |       |       |       |       |
         |       |       |       |       |       |       |       |
e|-----------6-------4-------6-------4-------4-------4-------4-------------|
B|-----------8-------6-------8-------6-------8-------6-------8-------------|
G|-----------8-------6-------8-------6-------8-------6-------8-------------|
D|-------------------------------------------------------------------------|
A|-------------------------------------------------------------------------|
E|-------------------------------------------------------------------------|
            Eb      Db      Eb      Db      Eb      Db     Eb     
  
The lines between the tabs show the beat (or the off-beat... the opinions 
differ ;) ) The chords of the guitar are the off-beat (or beat XD)


I'm not a 100% sure about the guitar chords, but the lowest note is surely 
correct. (Maybe it's kind of Eb - A#m / Bbm)

Hope that there are a few people out there missing Peter Fox on Ultimate-Guitar ;)
Martin

www.peterfox.de (to prove it's an official artist)
Related for Haus Am See tab