Song name
# A B C D E F G H I J K L M N O P Q R S T U V W X Y Z

Peter Fox - Alles Neu tab

-------------------------------------------------------------------------------
                         Alles Neu   -   Peter Fox
-------------------------------------------------------------------------------
Tabbed by: Martin Messner
Email: BigBonsai@hotmail.de

Tuning: E-Standard

//////////////////////////////////////////////
//                                          //
//  RATING THIS TAB TAKES ABOUT 5 SECONDS   //
//  AND HELPS ME TO IMPROVE MY WORK         //
//                                          //
//////////////////////////////////////////////


This Song is more about Rhythem than about notes, so
please regard this following tab as an idea of what to play...

because we all know that Peter Fox has some fine chromatic parts =)


Strings Intro
e|---------------------|
B|--13-10----12-9------|
G|--------11------10---|
D|---------------------|
A|---------------------|
E|---------------------|

Verse Strings
e|-----------------------------------------------------------|
B|-----------------------------------------------------------|
G|-----------------------------------------------------------|
D|--13\12--13\12--13--13\12--13\12--13\12--13--13\12--13\12--|
A|-----------------------------------------------------------|
E|-----------------------------------------------------------|

Chorus Strings
e|---------------------------------------------------------------|
B|---------------------------------------------------------------|
G|---------------------------------------------------------------|
D|--13\12--13\12--13-10-13\12--13\12--13\12--13-10-13\12--13\12--|
A|---------------------------------------------------------------|
E|---------------------------------------------------------------|
(Do you see the variation? ^^)


Trumpets
e|---------------|
B|---------------|
G|-8---8---8-8---|
D|---------------|
A|-6---6---6-6---|
E|---------------|

In the pre-chorus is a variation of the Intro played... which exactly is really hard zu find out
I guess it is some kind like this!
e|---------------------------|
B|---------------------------|
G|-13-10----12-9-----10-7----|
D|-------11------10-------9--|
A|---------------------------|

One of the Peter Fox's best Songs.... - yet ;)

Tap to rate this tab
# A B C D E F G H I J K L M N O P Q R S T U V W X Y Z