Song name
# A B C D E F G H I J K L M N O P Q R S T U V W X Y Z

Philip Glass - Candyman Theme tab

|-----------------------|------------------4----------|---------------------------|
|-----------------------|-----------------------------|---------------------------|
|----57875------54------|----57875-------5------------|----57875------54----------|
|-----------------------|-----------------------------|---------------------------|
|-----------------------|-----------------------------|---------------------------|
|-----------------------|-----------------------------|---------------------------|

|----------------86-----|---------------86------------|---------------------------|
|------------------9----|---8----64-43-----98-64-43---|---------------------------|
|----57875-----5--------|-----------------------------|----57874----54------------|
|-----------------------|-----------------------------|---------------------------|
|-----------------------|-----------------------------|---------------------------|
|-----------------------|-----------------------------|---------------------------|

|-----------------------|----86-----------------------|---------------------------|
|-----------------------|--------98-------------------|---------------------------|
|----57875----5---------|-----------------------------|---------------------------|
|-----------------------|-----------------------------|---------------------------|
|-----------------------|-----------------------------|---------------------------|
|-----------------------|-----------------------------|---------------------------|
Tap to rate this tab
 
# A B C D E F G H I J K L M N O P Q R S T U V W X Y Z