Song name
# A B C D E F G H I J K L M N O P Q R S T U V W X Y Z

Philipp Poisel - Halt Mich tab

Philipp Poisel - Halt mich (wie wenn das jetzt für immer)

Capo on 7th fred

Intro
Am Cadd9/H Cadd9 (g f#)
Am Cadd9/H Cadd9 

Verse 1
    Am (sus2)               C9/H          C9    C9/H
Die Eisenbahn fährt durch unbekanntes Land,
   Am                                C9/H               Cadd9  C9/H
vorbei an gold'nen Feldern, tiefen Flüssen und zum Strand.
    Am                       C9/H               C9    C9/H
Der Vorhang vor dem Fenster, flattert durchs Abteil.
            Am       C9/H       C9  C9/H
Und ich vermiss Dich,    weil...

Refrain
   Dm     Am    C     G
Du Heimat und Zuhause bist,
Dm       Am                C      G
weil bei Dir mein Bauchweh aufhört.
Em (7)               C(add9)
Halt mich, halt mich fest.
Em (7)                          C(add9)
Tu sooo, wie wenn das jetzt für immer so bleibt,
            Em (7)               C(add9)
für immer so bleibt, für immer so bleibt,
             Em(7)       C(add9)
für immer so bleibt.

Verse 2
Am                           C9/H       Cadd9   C9/H
Ich brauch kein' Kompass und keinen Sextant,
    Am       C9/H      Cadd9   C9/H
ich finde    stets zu Dir.
Am              C9/H             Cadd9   C9/H
Ich komm zurück,  weil ich Dich mag.
Am                            C9/H           Cadd9    C9/H
Kopf in Deinem Schoß, wie ´ne Taube in ihrem Schlag.

Refrain

Dm              Am      C                G
Sonne in meinen Segeln, Sonne auf meinem Weg.
Dm           Am      C         G
Sonne in den Bäumen, Sonne für Dich.

Em (7)                           C(add9)
Halt mich, halt mich, halt mich, halt mich fest.
Em(7)                           C(add9)
Tu sooo, wie wenn das jetzt für immer so bleibt,

Für immer so bleibt, für immer so bleibt, für immer so bleibt, für immer so 
bleibt, für immer so bleibt.

Chords
    Am  Am(sus2)  C9/H   C9    Dm
e|  0  |    0   |  0  |  0  |  1  |
h|  1  |    0   |  3  |  3  |  3  |
g|  2  |    2   |  0  |  0  |  2  |
D|  2  |    2   |  2  |  2  |  0  |
A|  0  |    0   |  2  |  3  |  x  |
E|  x  |    x   |  x  |  x  |  x  |
 
Tabs

Intro
   Am      (sus2)      C9/H    C9                 C9/H
e|---------------------------0-------0-----3-----2-------0---|
h|-------1-----0-----0-----3-------3-----3-----3-------3-----|
g|-----2-----2-----2-----0-------0-----0-----0-------0-------|
D|---2-----2-----2-------------------------------------------|
A|-0-------------------2-------3-------------------2---------|
E|-----------------------------------------------------------|

Verse
   Am      (sus2)      C9/H    C9                 C9/H
e|---------------------------0-------0-----0-----0-------0---|
h|-------1-----0-----0-----3-------3-----3-----3-------3-----|
g|-----2-----2-----2-----0-------0-----0-----0-------0-------|
D|---2-----2-----2-------------------------------------------|
A|-0-------------------2-------3-------------------2---------|
E|-----------------------------------------------------------|

Bridge
  Dm                  Am             C           G
e|-------1-1h3p1---0-----------------------------------------|
h|-----3---------3---------0h1-------1-------3-1-1-3-0h1p0---|
g|---2-------------------2-----2---2---0---0---------------0-|
D|-0-------------------2---------2-------2-------------------|
A|-------------------0---------------3-----------------------|
E|-----------------------------------------------3-----------|

  Dm                  Am             C       (G)
e|-------1-1h3p1---0-----------------------------------------|
h|-----3---------3---------0h1-------1-------3-1-0-3---------|
g|---2-------------------2-----2---2---0---0-----------------|
D|-0-------------------2---------2-------2-------------------|
A|-------------------0---------------3-----------------------|
E|-----------------------------------------------------------|


Strum on Refrain. Listen to Philipp for the timing. Have fun!
Tap to rate this tab
# A B C D E F G H I J K L M N O P Q R S T U V W X Y Z