Song name
# A B C D E F G H I J K L M N O P Q R S T U V W X Y Z

Phoenix - Entertainment tab

-------------------------------------------------------------------------------
                         Phoenix - Entertainment     
-------------------------------------------------------------------------------

Tuning: Standard. Guitar 2 has capo on 8. These bars are tabbed relative to
the capo.

I thought most tabs had a lot of stuff that is good and fun to learn, but
weren't very complete. So I tried to add some more guitar work.
--------------
Intro
--------------
On guitar, the riff is occasionally played one octave lower compared to 
the synth. Although, in some live performances, it seems both are played
exactly the same. Just choose, I guess.

Below, I tabbed both. Besides, there is rhythm guitar (guitar 2).

 * Synth
e|-13-13-11-11-----13-13-11-11-----13-11-13-15-11~----|
B|-------------13--------------13---------------------|
G|----------------------------------------------------|
D|----------------------------------------------------|
A|----------------------------------------------------|
E|----------------------------------------------------|

e|--------------------------------------------------|
B|-11-11-9-9-----11-11-9-9-----11-9-11-13-11-9------|
G|-----------10------------10------------------10~--|
D|--------------------------------------------------|
A|--------------------------------------------------|
E|--------------------------------------------------|

e|-13-13-11-11-----13-13-11-11-----13-11-13-15-11~----|
B|-------------13--------------13---------------------|
G|----------------------------------------------------|
D|----------------------------------------------------|
A|----------------------------------------------------|
E|----------------------------------------------------|

e|----------11-13-16-18~--16-18-20~--16-18-20-18-16---------20-20-18-16------|
B|----11-13------------------------------------------18-16--------------18-16|
G|-13------------------------------------------------------------------------|
D|---------------------------------------------------------------------------|
A|---------------------------------------------------------------------------|
E|---------------------------------------------------------------------------|

 * Guitar 1
e|----------------------------------------------|
B|----------------------------------------------|
G|-10-10-8-8-----10-10-8-8-----10-8-10-12-8~----|
D|-----------10------------10-------------------|
A|----------------------------------------------|
E|----------------------------------------------|

e|-----------------------------------------|
B|-----------------------------------------|
G|-----------------------------------------|
D|-8-8-6-6----8-8-6-6----8-6-8-10-8-6------|
A|---------8----------8---------------8~---|
E|-----------------------------------------|

e|----------------------------------------------|
B|----------------------------------------------|
G|-10-10-8-8-----10-10-8-8-----10-8-10-12-8~----|
D|-----------10------------10-------------------|
A|----------------------------------------------|
E|----------------------------------------------|

He doesn't play the last line. Although, when the synth for the first time
reaches that 18th fret, guitar 1 plays:
e|----------------------------------|
B|----------------------------------|
G|-5---5---5---5---6---6---6---6----|
D|-6---6---6---6---6---6---6---6----|
A|-3---3---3---3---4---4---4---4----|
E|----------------------------------|

 * Guitar 2 (remember it's relative to capo on 8). For each bar of the intro
   riff, except the last one, strum the chord like constantly:
   Bar 1   Bar 2   Bar 3   Bar 4
e|---3---|---1---|---3---|-----------------1---1---1---1----|
B|---3---|---2---|---3---|-0---0---0---0---2---2---2---2----|
G|---5---|---3---|---5---|-0---0---0---0---3---3---3---3----|
D|---5---|---3---|---5---|-2---2---2---2---3---3---3---3----|
A|-------|-------|-------|-2---2---2---2--------------------|
E|-------|-------|-------|-0---0---0---0--------------------|


--------------
Verse
--------------
 * Guitar 2. Some palm-muting could be applied.
e|------------------------------------------------------------------|--------|
B|------------------------------------------------------------------|--------|
G|------------------------------------------------------------------|--------|
D|-3-2-3-2-3-2-3-2-3-2-3-2-3-2-3-2-7-5-7-5-7-5-7-5-7-5-7-5-7-5-7-5--|--x3----|
A|-3-3-3-3-3-3-3-3-3-3-3-3-3-3-3-3-7-7-7-7-7-7-7-7-7-7-7-7-7-7-7-7--|--------|
E|------------------------------------------------------------------|--------|


 * Guitar 1. At the 'low, low, low, low, low'-part
e|-8--8--8--8--8--8--8--8--8--8--8--8--8--8--8--8----|
B|-9--9--9--9--9--9--9--9--9--9--9--9--9--9--9--9----|
G|-10-10-10-10-10-10-10-10-10-10-10-10-10-10-10-10---|
D|---------------------------------------------------|
A|---------------------------------------------------|
E|---------------------------------------------------|


--------------
Pre-chorus
--------------
 * Guitar 1. Continues the chords played before, but changes it somewhere.
   From the vocal-less part between the lines until the end of 'I'll take the 
   trouble that you have in mind', this chord:
e|-8--8--8--8--8--8--8--8--8--8--8--8--8--8--8--8---|
B|-11-11-11-11-11-11-11-11-11-11-11-11-11-11-11-11--|
G|-10-10-10-10-10-10-10-10-10-10-10-10-10-10-10-10--|
D|--------------------------------------------------|
A|--------------------------------------------------|
E|--------------------------------------------------|
   The previous chord then returns (and even continues into the chorus).

 * Guitar 2 plays nothing here.
 * Synth just before 'I'll take the trouble that you have in mind'
   sounds a bit like this:
e|------------------------------------|
B|----13------11----------------------|
G|-13------13-----8-10------------13--|
D|----------------------10-13---------|
A|------------------------------------|
E|------------------------------------|


--------------
Chorus
--------------
 * Guitar 1. I'll just show where to shift chords. Strumming pattern is the
   same as before.
    Entertainment  Show them what you do with me   When everyone knows 
 better                 What I once refused to be    Is ev. they long
together
e|--8---------------------------------8-----------------8--------8-------|
B|--9---------------------------------11----------------9--------9-------|
G|--10--------------------------------10----------------8--------8-------|
D|--------------------------------------------------------------10-------|
A|-----------------------------------------------------------------------|
E|-----------------------------------------------------------------------|


 * Guitar 2.
   Entertainment   Show them what you do with me   When everyone knows
       better          What I once refused to be     Is everything they long
      together
e|---------------------------------------------------------------------|
B|--------1---------------------------3-----------------1--------------|
G|--------2---------------------------2-----------------0--------------|
D|--------3---------------------------0-----------------2--------------|
A|--------3---------------------------------------------3--------------|
E|---------------------------------------------------------------------|

Chords ring out at 'together', no guitar at 'I'd rather be alone'.


--------------
Repeat intro
Repeat verse
Repeat pre-chorus
Repeat chorus (without 'I'd rather be alone')
--------------
Bridge
--------------
 * Guitarist 1 plays some synth here.
 * Guitar 2 continues his chords from the chorus.
 * Synth, followed by choir from the second bar on.
e|-------------------|
B|-------------------|
G|-10~---12~---13~---|
D|-------------------|
A|-------------------|
E|-------------------|

e|-11---------------11-------------------------------------------------------|
B|-----13~----11-13----13-11------11----11-13-11--------------------------11-|
G|---------------------------13------13----------13-10------10-13---10-13----|
D|-------------------------------------------------------13------------------|
A|---------------------------------------------------------------------------|
E|---------------------------------------------------------------------------|

e|--------------------------------11------11-13-11-13-16-13--11----11--------|
B|----11-13-11------11-13---11-13------13-----------------------13-----13----|
G|-13------------13----------------------------------------------------------|
D|---------------------------------------------------------------------------|
A|---------------------------------------------------------------------------|
E|---------------------------------------------------------------------------|

e|-----------------------------|
B|-11-13-11------11-13-11------|
G|------------13----------13---|
D|-----------------------------|
A|-----------------------------|
E|-----------------------------|

And this part not backed by the choir
e|---------------------------------|
B|-----------------11-----11-------|
G|----10-13--10-13-----13----13~---|
D|-13------------------------------|
A|---------------------------------|
E|---------------------------------|

'I'd rather be alone'. ---> repeat intro


************************************

| /   slide up
| \   slide down
| h   hammer-on
| p   pull-off
| ~   vibrato
| +   harmonic
| x   Mute note
| b   Bend
| pb  Pre-bend
| br  Bend release
| pbr Pre-bend release
| brb Bend release bend

************************************
Tap to rate this tab
# A B C D E F G H I J K L M N O P Q R S T U V W X Y Z